Cifra Club

Aprenda

Imensurável

Daniela Araújo

Cifra: Principal (violão e guitarra)
Tom: G
Intro:

E|--------------------
B|-------3----------3-
G|0-0-0-0---0-0-0-0---   (8x)
D|--------------------
A|--------------------
E|--------------------

(Verso 1)

E|----------|  ----------| ---------| ---------| -0----0--0----0
B|-------3--|  -------0--| -------1-| --------3| -3/5--5--5/3--3
G|0-0-0-0---|  0-0-0-0---| 0-0-0-0--| 0-0-0-0--| -0----0--0----0
D|----------|  ----------|----------| ---------| ---------------
A|----------|  ----------|----------| ---------| ---------------
E|----------|  ----------|----------| ---------| ---------------


G
Sei que não há com o que comparar
Em7
Tua grandeza presente está
C
Em todo lugar contemplo tua gloria

G
Como um grão de areia no mar
Em
Todo universo existe somente
C
Pra te adorar Tua imagem
G          D
Sou, há eu sou
Am       G/B   C                        G             G9   G
Descanso então com lírios do campo
Am     G/B   C                  G       D
Desfruto então de Ti todo tempo

G               D
Pra tua gloria sou
Em      C
Pra tua gloria vou
Am              C           G
Tua grandeza imensurável é
D
Ela é


G               D
Pra tua gloria sou
Em      C
Pra tua gloria vou
Am       G/B         C       D       G
Nada melhor do que só depender do teu amor

Am       G/B   C    G             G9   G
Descanso então com lírios do campo
Am     G/B   C              G       D
Desfruto então de Ti todo tempo

G               D
Pra tua gloria sou
Em      C
Pra tua gloria vou
Am              C        G
Tua grandeza imensurável é
D
Ela é
G               D
Pra tua gloria eu sou
Em      C
Pra tua gloria eu vou
Am       G/B    C         D     G
Nada melhor do que só depender do teu amor

Solo

G               D
Pra tua gloria sou
Em      C
Pra tua gloria vou
Am              C           G
Tua grandeza imensurável é
D
Ela é


G               D
Pra tua gloria eu sou
Em      C
Pra tua gloria eu vou
Am       G/B          C      D    G
Nada melhor do que só depender do teu amor

Nananana

Am       G/B       C      D      G
Nada melhor do que só depender do teu amor
Composição de Daniela Araújo
Colaboração e revisão:
57.565 exibições
    • ½ Tom
    • A
    • Bb
    • B
    • C
    • Db
    • D
    • Eb
    • E
    • F
    • F#
    • G
    • Ab
  • Adicionar à lista

    0 comentários

    Mostrar mais comentários
    00:00 / 00:00
    outros vídeos desta música
    repetir qualidade Automático
    Outros vídeos desta música
    00:00 / 00:00
    Automático
    OK