Cifra Club

Aprenda

Julho

Daniela Araújo

Cifra: Principal (violão e guitarra)
Já pensou em usar uma coleção de roupas do Cifra Club? Responda as perguntas abaixo e nos ajude nessa missão! →
tom: D
  
E|----------------------|
B|----------------------|
G|----------------------|
D|----7-------------6---|
A|--------7-----5-------|
E|----------------------|

G                      D
Eu saí dilacerada, quase afogada
A                        Bm
Num vazio sem destino, não sentindo nada,
G                    D
Adormecida por um sofrimento permanente
A                         Bm
Sem entender se tudo aquilo era consciente.
G                     D
Enquanto o que alguns chamam de intuição,
A                       Bm
Me cutucava me mostrando outra direção
G                   D
O medo me impediu de ver o que estava acontecendo
A                        Bm
Mas agora me parece que estou vendo

G              D
Só quero saber 
                BM A
O que me faz feliz, o que me faz feliz
G       D
Com Deus
              BM A
Sou eu o aprendiz, sou eu aprendiz

D
Esperar 
A
É confiar
Bm          G
Vou descansar,
D
Em Deus

E|----------------------|
B|----------------------|
G|----------------------|
D|----7-------------6---|
A|--------7-----5-------|
E|----------------------|


G                    D
Quando nossos problemas tapam os ouvidos
A                        Bm
Não entendemos impulsos, erros viram mitos,
G                     D
Mas é vivendo que se aprende
A                       Bm
E nunca sabemos o que é melhor pra gente.
G                    D
Não vou desanimar, vou me levantar,
A                         Bm
Agora reconheço sua voz, não vou me enganar,
G                   D
O medo me impediu de ver o que estava acontecendo
A                        Bm
Mas agora me parece que estou vendo

G              D
Só quero saber 
Bm                 A
O que me faz feliz, o que me faz feliz
G       D
Com Deus
Bm               A
Sou eu o aprendiz, sou eu aprendiz

D
Esperar 
A
É confiar
Bm          G
Vou descansar,
D
Em Deus

E|-------------------------------|
B|-------------------------------|
G|---12--------------------------|
D|------14--11-14-11-9-7-9--11---|
A|-------------------------------|
E|-------------------------------|

E|------------------------------|
B|------------------------------|
G|---12-------------------------|
D|------14--11-14-11-9-7-9--6---|
A|------------------------------|
E|------------------------------|

E|--------------------------------|
B|--------------------------------|
G|---12---------------------------|
D|------14--16-14-----------------|
A|--------------------------------|
E|---------------7-10-11--2---5---|



G                   D
O medo me impediu de ver o que estava acontecendo
A                        Bm        G D
Mas agora me parece que estou vendo
A                        Bm
Mas agora parece que estou vendo.
Composição de Daniela Araújo
Colaboração e revisão:
  • Rubiany Reis
8.262 exibições
    • ½ Tom
    • A
    • Bb
    • B
    • C
    • Db
    • D
    • Eb
    • E
    • F
    • F#
    • G
    • Ab
  • Adicionar à lista

    0 comentários

    Ver todos os comentários
    00:00 / 00:00
    Outros vídeos desta música
    Repetir Qualidade Automático
    Outros vídeos desta música
    00:00 / 00:00
    Automático

    Cifra Club Pro

    Aproveite o Cifra Club com benefícios exclusivos e sem anúncios
    Cifra Club Pro
    Aproveite o Cifra Club com benefícios exclusivos e sem anúncios
    OK