Cifra Club

Aprenda

Fidelidade

Danielle Cristina

Cifra: Principal (violão e guitarra)
Tom: Dm
Tom: F
Intro 2x: Dm  Bb  F  C


               
E|---------------------------5--8| B10--10R8/5--------------------
B|---------------------5-6-8------------------------------------|
G|----------------5--7------------------------------------------|
D|----------5--7------------------------------------------------|
A|---5--7-8-----------------------------------------------------|
E|--------------------------------------------------------------|


Dm                     Bb
Oh! Deus de Israel  eu sei
          C                     Gm
Que não vim a este mundo pra adorar outro Rei
Dm                  Bb
Os leões estão rugindo sem parar
         C
Meu louvor incomodou
         Gm             Am         Dm
A todos que são contra Ti  oh! Jeová

E|---------------------------5--8| B10--10R8/5--------------------
B|---------------------5-6-8------------------------------------|
G|----------------5--7------------------------------------------|
D|----------5--7------------------------------------------------|
A|---5--7-8-----------------------------------------------------|
E|--------------------------------------------------------------|




Parte 2:
Dm                  Bb
Nada pode intercalar o louvor do meu coração
C                         Gm                   Am  C Dm
Dos manjares eu abro mão os palácios não quero, não
                       F/C                         Bb
Eis me aqui como Daniel com os olhos focados no céu
                       Gm                           A7
Com o risco de morrer  pois o que importa é Lhe obedecer

( A  Gm  F  Em  Dm )

E|----------------------------|
B|----------------------------|
G|----------------------------|
D|--5/7-5---------------------|
A|---------8--7----5-4--------|
E|---------------6-----5------|

Dm                    Bb            F
Senhor  não vou dividir minha adoração
          C         Dm
Exclusivo é o meu coração
            Bb                   F
Vivo só pra Ti  não abro mão do céu
                C       A7        Dm
mesmo diante da morte prefiro ser fiel

Solo:  ( Dm  Bb  F  C )
Dm
Aquele que habita no esconderijo do Altíssimo
C/E
Á sombra do Onipotente descansará
Gm
Direi do Senhor  Ele é o meu Deus
    A
O meu refúgio  a minha fortaleza
Dm
Ele me livra do laço do passarinheiro

  C/E                   Gm
E da peste perniciosa Ele me cobre com Suas penas
      A7
E debaixo de Suas asas estarei seguro
Bb                             Gm
Eu não temo o espanto noturno  nem seta que voe de dia
 Dm                Dm/C
Nem peste que ande na escuridão
      C
Nem mortandade que assole ao meio dia
Gm
Não importa quantos caiam do meu lado
F/A
Direita, esquerda  eu sou protegido
Bb9
Se eu for fiel eu moverei o céu
C9                       Dm
Ele envia anjos para me guardar.
Dm                  Bb             F
Senhor  não vou dividir minha adoração
          C             Dm
Exclusivo é o meu coração
             Bb                   F
Vivo só pra Ti  não abro mão do céu
              C        A7         Dm
Até diante da morte prefiro ser fiel

( Dm  Bb  F  C Am Dm )
Composição de Anderson Freire 632.898 exibições
    • ½ Tom
    • Am
    • Bbm
    • Bm
    • Cm
    • C#m
    • Dm
    • Ebm
    • Em
    • Fm
    • F#m
    • Gm
    • G#m
  • Adicionar à lista

    0 comentários

    Mostrar mais comentários
    00:00 / 00:00
    outros vídeos desta música
    repetir qualidade Automático
    Outros vídeos desta música
    00:00 / 00:00
    Automático

    Cifra Club Pro

    Aproveite o Cifra Club com benefícios exclusivos e sem anúncios
    7 dias grátis
    Cifra Club Pro
    Aproveite o Cifra Club com benefícios exclusivos e sem anúncios
    7 dias grátis
    OK