Cifra Club

Aprenda

Batman

Danny Elfman

Cifra: Principal (violão e guitarra)
Tom: G
*(1°parte feita com o baixo mas aqui a verçao em guitarra/violão)

E|----------------------------------| Repeat it mais 2x
A|----------------------------------|
D|----------------------------------|
G|----------------------------------|
B|----------------------------------|
E|--9-9-8-8-7-7-8-8-9-9-8-8-7-7-8-8-|

*(2°parte já com a guitarra/violão)

E|----------------------------------| Repeat it mais 2x
A|----------------------------------|
D|----------------------------------|
G|----------------------------------|
B|--9-9-8-8-7-7-8-8-9-9-8-8-7-7-8-8-|
E|--7-7-6-6-5-5-6-6-7-7-6-6-5-5-6-6-|

*(3°parte)

E|----------------------------------------| Repeat it mais 2x
A|----------------------------------------|
D|----------------------------------------|
G|----------------------------------------|
B|--11-11-12-12-13-13-12-12-11-11-12-12---|
E|--9--9--10-10-11-11-10-10-9--9--10-10---|

*(4°parte isolada com voz)

E|----------------------------------------|
A|----------------------------------------|
D|----------------------------------------|
G|----------------------------------------|
B|----------------------------------------|
E|--9--9~~--9--9~~--12-12~-11-11~-9--9~~--|
  BATMAN!! BATMAN!! BATMAN! BATMAN! BATMAN....!!

* Depois repete a 2° parte e a 3° depois acaba!!
Colaboração e revisão:
  • Vinicius Henrique
1.102 exibições
    • ½ Tom
    • A
    • Bb
    • B
    • C
    • Db
    • D
    • Eb
    • E
    • F
    • F#
    • G
    • Ab
  • Adicionar à lista

    0 comentários

    Mostrar mais comentários

    Conseguiu tocar?

    1 Tocaram 0 Ainda não

    Grave um vídeo tocando Batman e mande pra gente!

    00:00 / 00:00
    outros vídeos desta música
    repetir qualidade Automático
    Outros vídeos desta música
    00:00 / 00:00
    Automático

    Cifra Club Pro

    Aproveite o Cifra Club com benefícios exclusivos e sem anúncios
    7 dias grátis
    Cifra Club Pro
    Aproveite o Cifra Club com benefícios exclusivos e sem anúncios
    7 dias grátis
    OK