Cifra Club

Blood And Tears

Danzig

Cifra: Principal (violão e guitarra)
tom: F# (forma dos acordes no tom de G) Afinação: Eb Ab Db Gb Bb Eb
      C             G
E|-------------------------------------------------------------
B|--------3h4-----3-----3h4-3---------3h4-----3-----3----------
G|------5-----5-----3---------------5-----5-----3-----3--------
D|----5---------5-----5-----------5---------5-----5-----5------
A|--3-------------------------1-3------------------------------
E|----------------3---------------------------3-----3----------

          F           G           F           G
E|-------------------------------------------------------------
B|-------------------------------------------------------------
G|------------1-----------3-----------1-----3------------------
D|----------3---3-------5---5-------3---3---5------------------
A|--------3-------3---5-------5---3-------3-5------------------
E|--3-2-1-----------3-----------1-----------3------------------

Intro
C,G 2x

(C,G)
Blood and tears
Blood and tears
Since you've been gone
I hear you've been crying
Blood and tears

All alone
In your misery
So alone
Could you have
Been deceived
Since I've been gone
I hear you been crying

D#        C
You cry a thousand tears
G#            A#
Darling don't despair
D#          A#
I know your heart still bleeds
G#                A#
Darling don't you care
G#               G
There's blood in your tears

     C         G         C         G
E|---------------------------------------
B|-------3-^-3h4-3-----------------------
G|--3/5~~----------3~~-3/5~~-3^3---------
D|--------------------------------5~~-----
A|---------------------------------------
E|---------------------------------------

(C,G)
All alone
In your misery
So
All alone
You are lost
Endlessly
Since you've been gone
I hear you been crying

D#        C
You cry a thousand tears
G#            A#
Darling don't despair
D#          A#
I know your heart still bleeds
G#                A#
Darling don't you care
D#        C
You cry a thousand tears
G#            A#
Darling don't despair
D#          A#
I know your heart still bleeds
G#                A#
Darling don't you care
G#               G
There's blood in your heart

Solo

         C         G          C         G              C             G                 C    G
E|--------------------------------------------------------8^--8^8-6------10^10^10^-10---------------
B|---------4^-4^3-----------------------------------6-8~~-----------8~~--10^10^10^-10-8~~--12^(12x)-
G|----3-5~~-------3~---3---------------3h4p3---3-4/5------------------------------------------------
D|-3/5-------------------5-4-3-----3-5-------5------------------------------------------------------
A|-----------------------------3-5-----------------------------------------------------------------
E|-------------------------------------------------------------------------------------------------

     F           G              F                               F
E|-----------------------------/15------12-----10----9------------------------------------------
B|--6^6-6~~-6^6-8~8~8~8~8~8~-------14-12--12-10--10-8-6h8p6-6--8~~ 8~8~8~8----------------------
G|---------------------------------------------------------7------------------------------------
D|----------------------------------------------------------------------------------------------
A|----------------------------------------------------------------------------------------------
E|----------------------------------------------------------------------------------------------

D#        C
You cry a thousand tears
G#            A#
Darling don't despair
D#          A#
I know your heart still bleeds
G#                A#
Darling don't you care
D#        C
You cry a thousand tears
G#            A#
Darling don't despair
D#          A#
I know your heart still bleeds
G#                A#
Darling don't you care
G#               G
There's blood in your heart

G#               G
There's blood in your heart

(C,G)
Blood and tears
Blood and tears
Blood and tears
00:00 / 00:00
Outros vídeos desta música
Repetir
Outros vídeos desta música
Composição de Glenn Danzig
Colaboração e revisão:
  • marcio andre
1.672 exibições
    • ½ Tom
    • A
    • Bb
    • B
    • C
    • Db
    • D
    • Eb
    • E
    • F
    • F#
    • G
    • Ab
  • Adicionar à lista

    0 comentários

    Ver todos os comentários

    Conseguiu tocar?

    1 Tocaram 0 Ainda não

    Grave um vídeo tocando Blood And Tears e nos envie!

    00:00 / 00:00

    Cifra Club Pro

    Aproveite o Cifra Club com benefícios exclusivos e sem anúncios
    Cifra Club Pro
    Aproveite o Cifra Club com benefícios exclusivos e sem anúncios
    OK