Cifra Club

She Rides

Danzig

Cifra: Principal (violão e guitarra)
tom: D
Entrada com bateria
Intro
Figura 1 (4x)
Figura 2 (8x)
Figura 3
G F# E
Figura 1
G F# E
Figura 1
Figura 2 (4x)
Figura 3
G F# E
Figura 1
G F# E
A G# G D
A G# G F
Figura 1 (4x)
Figura 2 (4x)
Figura 3
G F# E
Figura 1
G F# E
Figura 1
A G# G D
A G# G F
A G# G D
A G# G F

Intro
e|---------------------------+
B|---------------------------+
G|---------------------------+
D|----------------7--9-------+
A|----------------5--7-------+
E|--/\/\/\/\/\/\--------(0)--+
                        bass

Figura 1               1/2 step         bend & release
e|---------------------------------------------+
B|------------------------7^-------------------+
G|------------------------7^-------------------+
D|--7--9-----9-------------------9-------------+
A|--5--7--7-----7--10--9------7-----7--10--9^--+
E|---------------------------------------------+

Figura 2  PM    PM    PM
e|--------------------------+
B|--------------------------+
G|--------------------------+
D|--7--9-----9-----9-----9--+
A|--5--7--7--7--7--7--7--7--+
E|--------------------------+

Figura 3
e|-----------------+-R-+--------------------+-R-+
B|-----------------+-E-+--------------------+-E-+
G|--2----/9--8-----+-P-+-------/7--6--7-----+-P-+
D|--2-----------9--+-E-+--2--------------7--+-E-+
A|--0--------------+-A-+--2-----------------+-A-+
E|-----------------+-T-+--0-----------------+-T-+


She rides
Let loose upon the world
She is the night
And my loneliness in bondage
She's black
And sin runds down her back
She rides
From the daylight in chains

She rides the night
She rides the night

She slides
Down inside your skin
In time
She will make you scream
She's death
In a ghoul white dress
She rides
In the night of your mind

She rides the night
She rides the night

Yea
She'll take you down
She'll take you
She'll take you around

She'll take you down
She'll take you
She'll take you around

She rides
Let loose upon the world
She is the night
And my loneliness n bondage
She's black
And sin runs down her back
She rides
From the daylight in chains

She rides the night
She rides the night

Ooh yea
She'll take you down
She'll take you
She'll take you around

She'll take you down
She'll take you
She'll take you around

She'll take you down
She'll take you
She'll take you around

She'll take you down
She'll take you
She'll take you around
00:00 / 00:00
Outros vídeos desta música
Repetir
Outros vídeos desta música
Composição de Glenn Danzig
Colaboração e revisão:
  • Ruy Martins.
3.891 exibições
    • ½ Tom
    • A
    • Bb
    • B
    • C
    • Db
    • D
    • Eb
    • E
    • F
    • F#
    • G
    • Ab
  • Adicionar à lista

    0 comentários

    Ver todos os comentários

    Conseguiu tocar?

    2 Tocaram 0 Ainda não

    Grave um vídeo tocando She Rides e nos envie!

    00:00 / 00:00

    Cifra Club Pro

    Aproveite o Cifra Club com benefícios exclusivos e sem anúncios
    Cifra Club Pro
    Aproveite o Cifra Club com benefícios exclusivos e sem anúncios
    OK