Cifra Club

Aprenda

Crimson Winds

Dark Tranquillity

Cifra: Principal (violão e guitarra)
Tom: C
Intro:

|----------------------------|-----------------------------|
|----------------------------|-3h5-6-5-3-(5)-(3)-----------|
|--5-7/8---6-8/9-(8)-6-------|-----------------------------|
|----------------------------|-----------------------------|
|----------------------------|-----------------------------|
|----------------------------|-----------------------------|

|----------------------------|-----------------------------|
|-7-2-7-6----3h5-6-5-3-(5)(3)|-----------------------------|
|----------------------------|--5-7/8---6-8/9-(8)-6--------|
|----------------------------|-----------------------------|
|----------------------------|-----------------------------|
|----------------------------|-----------------------------|

|----------------------------|-----------------------------|
|--3h5-6-5-3---(5)-(3)-------|----7-2-7---6-5--------------|
|----------------------------|-----------------------------|
|----------------------------|-----------------------------|
|----------------------------|-----------------------------|
|----------------------------|-----------------------------|

|----------------------------|-----------------------------|
|--7-5-----5-7-(5)------2----|-----------------------------|
|-------4-----------(4)------|-5-7/8-6---8/9-(8)-6---------|
|----------------------------|-----------------------------|
|----------------------------|-----------------------------|
|----------------------------|-----------------------------|

|----------------------------|-----------------------------|
|----3h5-6-5-3-(5)-(3)-------|--7-2---7-6------------------|
|----------------------------|-----------------------------|
|----------------------------|-----------------------------|
|----------------------------|-----------------------------|
|----------------------------|-----------------------------|

|----------------------------|-----------------------------|
|----------------------------|--3h5-6-5-3---(5)-(3)--------|
|-5-7/8-6-8/9---(8)-6--------|-----------------------------|
|----------------------------|-----------------------------|
|----------------------------|-----------------------------|
|----------------------------|-----------------------------|

|----------------------------|-----------------------------|
|--7-2---7-6-7---------------|-7-5----5-7-(5)----2---2-5-4-|
|----------------------------|------4---------(4)----------|
|----------------------------|-----------------------------|
|----------------------------|-----------------------------|
|----------------------------|-----------------------------|

Part 2 (I really have no clue how to tab that out, please
mail me if you have that part)

at 3.12 on cd

|----------------------------|-----------------------------|
|-9-7-9-7-9-7-9-5-7-5-7-5-7--|-3-5-3-5-3-5-3-2-3-2-3-2-----|
|----------------------------|-----------------------------|
|----------------------------|-----------------------------|
|----------------------------|-----------------------------|
|----------------------------|-----------------------------|
repeat 2x

|----------------------------|-----------------------------|
|-12-10-12-10-12-10-12-9-10--|-9-10-9-10-7-9-7-9-7-9-7-----|
|----------------------------|-----------------------------|
|----------------------------|-----------------------------|
|----------------------------|-----------------------------|
|----------------------------|-----------------------------|

|----------------------------|
|-9h10h9h10------------------|
|----------------------------|
|----------------------------|
|----------------------------|
|----------------------------|
repeat 2x

at 3.37 on cd (time)

|----------------------------|-----------------------------|
|-12-10-8-7------------------|-5-7-8---7-5-8-7-------------|
|----------------------------|-----------------------------|
|----------------------------|-----------------------------|
|----------------------------|-----------------------------|
|----------------------------|-----------------------------|

|----------------------------|-----------------------------|
|-15-12-10-8-10-8-10-8-------|-8-10-12----10-12-15-13-12---|
|----------------------------|-----------------------------|
|----------------------------|-----------------------------|
|----------------------------|-----------------------------|
|----------------------------|-----------------------------|

Ok now best part of whole song (solo)

|-12-10-8-7------------------|-5-7-8-5---8-7---------------|
|----------------------------|-----------------------------|
|----------------------------|-----------------------------|
|----------------------------|-----------------------------|
|----------------------------|-----------------------------|
|----------------------------|-----------------------------|

|-12-10-8-7------------------|-5-7-8-5-7----5-8-7----------|
|----------------------------|-----------------------------|
|----------------------------|-----------------------------|
|----------------------------|-----------------------------|
|----------------------------|-----------------------------|
|----------------------------|-----------------------------|

|-15-15-15-13/17~-15---------|-10h12h10h12h10h12h10h12h13h-|
|----------------------------|-----------------------------|
|----------------------------|-----------------------------|
|----------------------------|-----------------------------|
|----------------------------|-----------------------------|
|----------------------------|-----------------------------|

|-12h13h12h13h15h13h15h13h15-|-14-15-----------------------|
|----------------------------|-----------------------------|
|----------------------------|-----------------------------|
|----------------------------|-----------------------------|
|----------------------------|-----------------------------|
|----------------------------|-----------------------------|

|-15-15-15-15-15-15----------|-13-13-13-13-13-13-----------|
|----------------------------|-----------------------------|
|----------------------------|-----------------------------|
|----------------------------|-----------------------------|
|----------------------------|-----------------------------|
|----------------------------|-----------------------------|

|--10-12-13-10-13-12---------|
|----------------------------|
|----------------------------|
|----------------------------|
|----------------------------|
|----------------------------|
Composição de Anders Jivarp
Colaboração e revisão:
  • Guilherme Abrão
424 exibições
    • ½ Tom
    • A
    • Bb
    • B
    • C
    • Db
    • D
    • Eb
    • E
    • F
    • F#
    • G
    • Ab
  • Adicionar à lista

    0 comentários

    Mostrar mais comentários

    Conseguiu tocar?

    0 Tocaram 0 Ainda não

    Grave um vídeo tocando Crimson Winds e mande pra gente!

    00:00 / 00:00
    outros vídeos desta música
    repetir qualidade Automático
    Outros vídeos desta música
    00:00 / 00:00
    Automático

    Cifra Club Pro

    Aproveite o Cifra Club com benefícios exclusivos e sem anúncios
    7 dias grátis
    Cifra Club Pro
    Aproveite o Cifra Club com benefícios exclusivos e sem anúncios
    7 dias grátis
    OK