Cifra Club

Aprenda

Noite no cais

Darvin

Cifra: Principal (violão e guitarra)
tom: A
Intro:
|-----------------------------------------------|
|-----------------------------------------------|
|-----------------------------------------------|
|-----------------------------------------------|
|4-5-4-----7-5-4-----------4-5-4---------7-5-4--|
|------7-5-------7-5---5-7-------7-5-7-5--------|

|-----------------------------------------------|
|-----------------------------------------------|
|-----------------------------------------------|
|-----------------------------------------------|
|-7-5-4-5-4--------------------------------------|
|-----------7-5-------------------------|
Intro parte 2:
essa partte eh a mais complicada, tem que pegar o ritimo na musica...
essa parte eh oitavada...
|--------------------------------------------------|
|--------------------------------------------------|
|--------------------------------------------------|
|-7-7-7-9-7--7-9-11-9-11-12-11-9-7-9-11-9-7-6-7-9-7|
|--------------------------------------------------|
|-5-5-5-7-5--5-7--9-7--9-10--9-7-5-7--9-7-5-4-5-7-5|
A5
TUDO BEM ÀS VEZES ACONTECE
E5                                  
VOCÊ NÃO QUER MAIS É O QUE ME PARECE
F#5 (na 9ª casa)                      D5
TUDO ACABOU CEDO E EU COM MEDO DE TE PERDER
A5
ATÉ AGORA EU GUARDO NA LEMBRANÇA
E5
QUE POR CULPA DA MINHA INSEGURANÇA
F#5 (9ª)             D5
TUDO MAIS FICOU PRA TRÁS... 

Refrão:
       
AQUELA 
A5           E5
NOITE NO CAIS
B5 (7ª casa)     D5
SÓ ISSO E NUNCA MAIS
A5     E5       B5 (7ª)   D5
COMENDO CREPE NO SHOW DO DKV
A5              E5
MUITA PINA COLADA 
B5 (7ª)       D5
E A GALERA AGITADA 
A5             E5           B5     D5
PRA VALER E EU SÓ PENSANDO EM VOCÊ

|-----------------------------------------------|
|-----------------------------------------------|
|-----------------------------------------------|
|-----------------------------------------------|
|4-5-4-----7-5-4-----------4-5-4---------7-5-4--|
|------7-5-------7-5---5-7-------7-5-7-5--------|

|-----------------------------------------------|
|-----------------------------------------------|
|-----------------------------------------------|
|-----------------------------------------------|
|---------5--4----------------------------------|
|-7-5---7------7--------------------------------|
A5
E DEPOIS VIROU QUASE UM SEGREDO
E5
COMO SE AQUILO TIVESSE SIDO UM ERRO
F#5 (9ª)                      D5
PENSAR EM TER VOCÊ TODA PRA MIM

A5
TUDO OK EU NÃO SEI SE MEREÇO
E5
POR RAZÕES QUE EU DESCONHEÇO
F#5 (9ª)                  D5
TUDO MAIS FICOU PRA TRÁS...

REFRÃO 2 VEZES:

A5           E5
NOITE NO CAIS
B5 (7ª casa)     D5
SÓ ISSO E NUNCA MAIS
A5     E5       B5 (7ª)   D5
COMENDO CREPE NO SHOW DO DKV
A5              E5
MUITA PINA COLADA 
B5 (7ª)       D5
E A GALERA AGITADA 
A5             E5           B5     D5
PRA VALER E EU SÓ PENSANDO EM VOCÊ

SOLO: a parte mais complicada

|-----------------------------------------------|
|-----------------------------------------------|
|-----------------------------------------------|
|-----------------------------------------------|
|4-5-4-----7-5-4--------------------------------|
|------7-5-------7-5----------------------------|

2 vezes essa parte
|-----------------------------------------------|
|-----------------------------------------------|
|-6-7-6-7-9-7-6---------------------------------|
|-----------------------------------------------|
|-4-5-4-5-7-5-4---------------------------------|
|-----------------------------------------------|

|-12-12-12-12-12-12-12-12-10-10-10--9--9--9-10-10--|
|-10-10-10-10-10-10-10-10-10-10-10-10-10-10-10-10--|
|--------------------------------------------------|
|--------------------------------------------------|
|--------------------------------------------------|
|--------------------------------------------------|

|-12-10--9-10--9-10--9-10-----------------------|
|-10-10-10-10-10-10-10-10-----------------------|
|-----------------------------------------------|
|-----------------------------------------------|
|-----------------------------------------------|
|-----------------------------------------------|

refrão: 

A5           E5
NOITE NO CAIS
B5 (7ª casa)     D5
SÓ ISSO E NUNCA MAIS
A5     E5       B5 (7ª)   D5
COMENDO CREPE NO SHOW DO DKV
A5              E5
MUITA PINA COLADA 
B5 (7ª)       D5
E A GALERA AGITADA 
A5             E5           B5     D5
PRA VALER E EU SÓ PENSANDO EM VOCÊ
Composição de Darvin
Colaboração e revisão:
  • adriano arocha
  • Lucas Lavoyer
45.465 exibições
    • ½ Tom
    • A
    • Bb
    • B
    • C
    • Db
    • D
    • Eb
    • E
    • F
    • F#
    • G
    • Ab
  • Adicionar à lista

    0 comentários

    Ver todos os comentários

    Conseguiu tocar?

    0 Tocaram 0 Ainda não

    Grave um vídeo tocando Noite no cais e nos envie!

    00:00 / 00:00
    Outros vídeos desta música
    Repetir Qualidade Automático
    Outros vídeos desta música
    00:00 / 00:00
    Automático

    Cifra Club Pro

    Aproveite o Cifra Club com benefícios exclusivos e sem anúncios
    Cifra Club Pro
    Aproveite o Cifra Club com benefícios exclusivos e sem anúncios
    OK