Cifra Club

Aprenda

Podia Ser Pior

Darvin

Cifra: Principal (violão e guitarra)
tom: G
(intro)

E|-------------|
B|-15----15----|
G|----12-----12| (12x)
D|-------------|
A|-------------|
E|-------------|

E|-----------|------------------------|-----------------------------|------------------------|--------------------------|
B|----17-----|-15---15---15---15---15-|---13----13-----12-----12----|-15----15--15----15-----|-13----13-----12-----12---|
G|-------12--|----12--12---12---12----|12----12----12-----12-----12-|----12---12----12----12-|----12----12----12----12--|
D|-----------|------------------------|-----------------------------|------------------------|--------------------------|
A|-----------|------------------------|-----------------------------|------------------------|--------------------------|
E|-----------|------------------------|-----------------------------|------------------------|--------------------------|

* continua tocando isso e entra essa parte akii

E|-----------------------|   3 vezes essa parte |--------------|
B|-----------------------|    e na ultima é     |--------------|
G|-----------7-4---------|     sem a parte      |----------7-4-|
D|-9--7/5-5------7h5---5-|      do Ligato       |-9--7/5-5-----|
A|-------------------7---|        assim         |--------------|
E|-----------------------|                      |--------------|

(intro)  G C

         G
Eu te falei, que tudo acaba em um segundo
          C9                                           G
Eu me lembrei, que o começo é bem melhor do que o final
G                                  C9
Que tudo muda nada continua igual
C9
O tempo passa e os nossos planos
      Em7                   G
Ficam só na nossa imaginação
          Em7                     G
E se eu errei por favor peço perdão
        Em7                  G
Ainda assim eu sabia que de novo
                 C9
Eu conheceria o nome do jogo
                             G        C
E é tão difícil estarmos sós
        G                                        C9
Eu me lembrei, tão poucas vezes de você eu duvidei
                               G
Fazia tudo pra poder te encontrar
G                                 C9
Ficar sozinho dava tempo pra pensar
C9
Em um minuto horas voavam
      Em7                    G
E eu fazia de tudo pra te ver
         Em7                         G
E se eu errei por favor foi por você
        Em7                   G
Ainda assim voltaria novamente
                  C9
Pra descrever o que a gente sente
                            G
E é tão difícil estarmos sós

G            D
Eu sei, tem algo errado
          Em7            C9
E quando olhei você, bem do meu lado
             G
Foi que eu percebi
   D         Em
Podia ser pior
     C          G        D
E a gente fica, só ali, parado à toa
     Em7              C9
Procurar você, em outra pessoa
        G
Mas eu descobri
   D       Em       C
Podia ser pior

(intro)

E|-10-10-10...-12|-10-10-10-10-8-8-7-7|(essa segunda parte se faz 2x)
B|---------------|--------------------|
G|---------------|--------------------|
D|---------------|--------------------|
A|---------------|--------------------|
E|---------------|--------------------|

(solo base 2x) G C

        Em7                 G
E ficam só na nossa imaginação
           Em7                   G
E se eu errei por favor peço perdão
         Em7                   G
Ainda assim eu sabia que de novo
                 C9
Eu conheceria o nome do jogo
                            G
E é tão difícil estarmos sós

G            D
Eu sei, tem algo errado
          Em7              C9
E quando olhei você, bem do meu lado
             G
Foi que eu percebi
   D         Em
Podia ser pior
     C          G        D
E a gente fica, só ali, parado à toa
      Em7             C9
Procurar você, em outra pessoa
        G
Mas eu descobri
   D        Em       C
Podia ser pior
                          G
É tão dificil estarmos sós;
                     D                         Em7
Eu nao sei, eu nao sou, eu ja nem lembro mais;
Em                     C                      G
De onde vim, onde estou, eu já nao sou capaz;
                   D
É que quando eu te vejo até me esqueco
      Em                    C                     G
Que o tempo passou e que a gente nao vai se ver mais       (2x)
Compositor não encontrado.
123.260 exibições
    • ½ Tom
    • A
    • Bb
    • B
    • C
    • Db
    • D
    • Eb
    • E
    • F
    • F#
    • G
    • Ab
  • Adicionar à lista

    0 comentários

    Ver todos os comentários

    Conseguiu tocar?

    8 Tocaram 1 Ainda não

    Grave um vídeo tocando Podia Ser Pior e nos envie!

    00:00 / 00:00
    Outros vídeos desta música
    Repetir Qualidade Automático
    Outros vídeos desta música
    00:00 / 00:00
    Automático

    Cifra Club Pro

    Aproveite o Cifra Club com benefícios exclusivos e sem anúncios
    Cifra Club Pro
    Aproveite o Cifra Club com benefícios exclusivos e sem anúncios
    OK