Cifra Club

Kill Your Attitude

Darwin Deez

Cifra: Principal (violão e guitarra)
Selo Cifra Club: esta cifra foi revisada para atender aos critérios oficiais da nossa Equipe de Qualidade.
tom: A
E|E|-------------------------------------------------------------------------------||
                     Kill Your Attitude - Darwin Deez
E|E|-------------------------------------------------------------------------------||
Tabbed by: Rory H

Hey! I decided to tab this new Darwin Deez song because it's major cool, and there weren't any tabs
online for it. It is probably filled with inaccuracies, for example some notes are extras or missing,
and I may have mistaken the two guitars for one another, but I did what I could! If there are any
improvements or corrections, please let me know in the comments or by email :)


Tuning: EADGBe

I would just like to note that there is a second guitar track, and I've put in what I can, but if I haven't
it's because it's pretty much just random picking and is pretty low in the mix.

Verse:
E|-5--5-5-5----5--5-5-5----10--10-10-10----10--10-10-10----12--12-12-12-|
B|-6--6-6-6----6--6-6-6----11--11-11-11----11--11-11-11----13--13-13-13-|
G|-5--5-5-5----5--5-5-5----10--10-10-10----10--10-10-10----12--12-12-12-| x2
D|-7--8-8-7----7--8-8-7----12--13-13-12----12--13-13-12----14--15-15-14-|
A|----------------------------------------------------------------------|
E|----------------------------------------------------------------------|

E|----------10----5--5-5-5----------------10-|
B|----------11----6--6-6-6----------------11-|
G|----------10----5--5-5-5----------------10-|
D|-----5----12----7--8-8-7-------8-7-5----12-|
A|-8-7-5-------------------x-x-x-8-7-5-------|
E|-6-5-3-------------------x-x-x-6-5-3-------|


Chorus:
Guitar track 1:
E|-12-x-12-x-5-x-5-x-10-x-10-x-10-x----------x----x----x----x-5-x-5-x-10-x-10-|
B|-13-x-13-x-6-x-6-x-11-x-11-x-11-x-------11-x-11-x-14-x-14-x-6-x-6-x-11-x-11-|
G|-12-x-12-x-5-x-5-x-10-x-10-x-10-x--------9-x--9-x-12-x-12-x-5-x-5-x-10-x-10-|
D|-14-x-14-x-7-x-7-x-12-x-12-x-12-x----------x----x----x----x-7-x-7-x-12-x-12-|
A|----------------------------------------------------------------------------|
E|----------------------------------6-5-3-------------------------------------|
 |Guitar track 2 (Just mess around with this a bit):
e|-------5-------5-------5-------5-----------3-------3-------------------------------5-------5--|
B|-----6-6-----6-6-----6-6-------6---------2-2-----2-2---------6--------6----------6---6---6----|
G|---5-------5-------5-------5------X2---3-------3------X2---5---5----5---5------5-------5------|
D|-7-------7-------7-------7---7-------2-------2-----------7-------7--------7--7----------------|
A|E|E|-------------------------------------------------------------------------------||---------------|
E|E|E|-------------------------------------------------------------------------------||---------------|
 
Guitar track 1:
E|-10-x-10-x-10-x--------10-x-10-x-10-x--------10-x-10-x----x-------|
B|-11-x-11-x-11-x--------11-x-11-x-11-x--------11-x-11-x-15-x-15-15-|
G|-12-x-12-x-12-x-14-14--12-x-12-x-12-x-14-14--12-x-12-x-15-x-15-15-|
D|-12-x-12-x-12-x-14-14--12-x-12-x-12-x-14-14--12-x-12-x-15-x-15-15-|
A|------------------------------------------------------------------|
E|------------------------------------------------------------------|
 |Guitar track 2:
E|----------------|
B|----------------|
G|-------/2-------| x2
D|-5-5-3----3-5h3-|
A|----------------|
E|----------------|


Pre-Verse:
Guitar track 1:
E|-5--5-5-5----5--5-5-5-|
B|-6--6-6-6----6--6-6-6-|
G|-5--5-5-5----5--5-5-5-|
D|-7--8-8-7----7--8-8-7-|
A|----------------------|
E|----------------------|
 |Guitar track 2:
E|----------------------------------------|
B|----------------8-6---------------------|
G|--------------------7-5-7---5---7-------|
D|--------------------------7---7---7-5---|
A|--------------------------------------8-|
E|----------------------------------------|

Verse 2:
E|-5--5-5-5----5--5-5-5----10--10-10-10----12--12-12-12-|
B|-6--6-6-6----6--6-6-6----11--11-11-11----13--13-13-13-|
G|-5--5-5-5----5--5-5-5----10--10-10-10----12--12-12-12-| x2
D|-7--8-8-7----7--8-8-7----12--13-13-12----14--15-15-14-|
A|------------------------------------------------------|
E|------------------------------------------------------|

E|----------10----5--5-5-5----------------10-|
B|----------11----6--6-6-6----------------11-|
G|----------10----5--5-5-5----------------10-|
D|-----5----12----7--8-8-7-------8-7-5----12-|
A|-8-7-5-------------------x-x-x-8-7-5-------|
E|-6-5-3-------------------x-x-x-6-5-3-------|


Repeat Chorus


Solo:
Guitar 1 plays all of this:
e|----------------------------------------------------------------------------10-------10-------10-------10---|
B|------------------8---------------8-10-------------8-10-11-----------8-10-x----13b15----13b15----13b15------|
G|-----------7-9-10----------7-9-10-----------7-9-10------------7-9-10----------------------------------------|
D|----7-8-10----------7-8-10-------------8-10----------------10-----------------------------------------------|
A|-10E|E|-------------------------------------------------------------------------------||--------------------------|
E|E|E|-------------------------------------------------------------------------------||-----------------------------|
                                                   
E|-10------10-10------10-10------10-10------10-10----15~--|
B|-13b15------13b15------13b15------13b15------13b15------|
G|--------------------------------------------------------|
D|--------------------------------------------------------|
A|--------------------------------------------------------|
E|--------------------------------------------------------|
(Pretty much mess around with these two positions for this section)
   T         T
E|-10----------------10-------------13---------------|
B|----13-10-13b15-------13-10---X6-------13-10---X4--|
G|---------------------------------------------------|
D|---------------------------------------------------|
A|---------------------------------------------------|
E|---------------------------------------------------|

E|-13b15-13-10----15b17-13-12-------------------------------------------|
B|---------------x------------13----------------------------------------|
G|--------------x----------------14-----------------10-10-9-10-12-14-15-|
D|----------------------------------------------------------------------|
A|----------------------------------------------------------------------|
E|-----------------------------------1-3-5--1-3-5/----------------------|

Whilst guitar 2 plays this:
E|--8-x--8-x--8--8-x--8-x-3-x-3-x-3-3-x-3-|
B|--8-x--8-x--8--8-x--8-x-3-x-3-x-3-3-x-3-|
G|--9-x--9-x--9--9-x--9-x-4-x-4-x-4-4-x-4-| until end of solo
D|-10-x-10-x-10-10-x-10-x-5-x-5-x-5-5-x-5-|
A|-10-x-10-x-10-10-x-10-x-5-x-5-x-5-5-x-5-|
E|--8-x--8-x--8--8-x--8-x-3-x-3-x-3-3-x-3-|

Post Solo:
E|---6-x-6-x-6-6-x-6-x-6-x-6-x-6-6-x-6-6-|
B|---6-x-6-x-6-6-x-6-x-6-x-6-x-6-6-x-6-6-|
G|---7-x-7-x-7-7-x-7-x-7-x-7-x-7-7-x-7-7-|
D|-7-8-x-8-x-8-8-x-8-x-8-x-8-x-8-8-x-8-8-|
A|-7-8-x-8-x-8-8-x-8-x-8-x-8-x-8-8-x-8-8-|
E|-5-6-x-6-x-6-6-x-6-x-6-x-6-x-6-6-x-6-6-|


Bridge:
Again, just fiddle around with this a bit

e|-------5-------5-------5-------5-----------3-------3-------------------------------5-------5--|
B|-----6-6-----6-6-----6-6-------6---------2-2-----2-2---------6--------6----------6---6---6----|
G|---5-------5-------5-------5------X2---3-------3------X2---5---5----5---5------5-------5------|
D|-7-------7-------7-------7---7-------2-------2-----------7-------7--------7--7----------------|
A|E|E|-------------------------------------------------------------------------------||---------------|
E|E|E|-------------------------------------------------------------------------------||---------------|

And then just finish on the second line of the chorus :)

************************************

| /   slide up
| \   slide down
| h   hammer-on
| p   pull-off
| ^   hold note when bent
| ~   vibrato
| +   harmonic
| x   Mute note
| b   Bend
| pb  Pre-bend
| br  Bend release
| pbr Pre-bend release
| brb Bend release bend
Outros vídeos desta música
    1 exibições
      • ½ Tom
      • A
      • Bb
      • B
      • C
      • Db
      • D
      • Eb
      • E
      • F
      • F#
      • G
      • Ab
    • Adicionar à lista

    Afinação da cifra

    Afinador online

      0 comentários

      Ver todos os comentários

      Conseguiu tocar?

      0Tocaram0Ainda não

      Grave um vídeo tocando Kill Your Attitude e nos envie!

      Toque também

      1. Imagem do artista Two Door Cinema ClubWhat You Know Two Door Cinema Club
      2. Imagem do artista The MaccabeesToothpaste Kisses The Maccabees
      3. Imagem do artista Bombay Bicycle ClubLuna Bombay Bicycle Club
      4. Imagem do artista The WombatsLets Dance To Joy Division Intro The Wombats

      Entre para o Cifra Club PRO

      Tenha acesso a benefícios exclusivos no App e no Site

      • Chega de anúncios

      • Badges exclusivas

      • Mais recursos no app do Afinador

      • Atendimento Prioritário

      • Aumente seu limite de lista

      • Ajude a produzir mais conteúdo

      Cifra Club Pro

      Aproveite o Cifra Club com benefícios exclusivos e sem anúncios
      Cifra Club Pro
      Aproveite o Cifra Club com benefícios exclusivos e sem anúncios
      OK