Cifra Club

Some Devil

Dave Matthews Band

Cifra: Principal
exibições 8.515
Tom: A
Essa música é a que dá o título ao novo CD Solo do Dave Matthews.
Muito legal e simples só precisa de uma guitarra levemente
distorcida e com bastante reverb.


Intro:
    Bmaj            Amaj         Emaj/E           Gmaj   Amaj
E|----------------------------------------------------------------
B|----------------------------------------------------------------
G|-------7/8-7/8-/6------6-6/4-----------4-------------4------6---
D|-------8/9-8/9-/7------7-7/6---------6----6----------5------7---
A|-----------------------------------7--------7------5------7-----
E|---7---------------5------------0----------------3------5-------

Ele toca a parte anterior até chegar no refrão. Chegando no refrão ele toca o seguinte:

Chorus:
   D5     D5/C#   B5    A5     Gmaj
E|----------------------------------------------
B|----------------------------------------------
G|-----7------7------4-----2-------4------------
D|-----7------7------4-----2------5-------------
A|--5------4-------2-----0-------5--------------
E|------------------------------3---------------------
Acordes para:
    Composição: Dave Matthews

    0 comentários

      mostrar mais comentários

      Conseguiu tocar?

      0tocaram0ainda não

      Grave um vídeo tocando Some Devil e mande pra gente!

      00:00 / 00:00
      outros vídeos desta música
      repetirqualidadeautomática
      Outro vídeos desta música
        00:00 / 00:00
        automática
        OK