Cifra Club

Sonhos

Davi e Bruno

Cifra: Principal (violão e guitarra)
tom: D
Solo:
E|---12-10-------10----12-10-------12--|
B|---------12-10-------------12-10-----|
G|-------------------------------------|
D|-------------------------------------|
A|-------------------------------------|
E|-------------------------------------|

E|---12-10-------10--------------------|
B|---------12-10-----------------------|
G|-------------------11--11-10-9-------|
D|-------------------------------------|
A|-------------------------------------|
E|-------------------------------------|

Verso / Refrão:
D                          Bm
Depois de muito tempo acordado
D                      Bm
Dormi e tive um solho lindo
D                      G               Bm
Solhei que estava acordado, cordei pra ver,
          A
Tava dormindo.
E|------------------------------|
B|------------------------------|
G|------------------------------|
D|------------------------------|
A|----5--5--5---2--2-2h3p4------|            (2x)
E|--------------------------3-4-|

E|-----------------------------------|
B|-----------------------------------|
G|-----------------------------------|
D|-----------------------------------|
A|----5--5--5----------2--2----------|
E|-------------3--3-3--------2-2-3-5-|
Compositor não encontrado.
Colaboração e revisão:
  • Bruno
354 exibições
    • ½ Tom
    • A
    • Bb
    • B
    • C
    • Db
    • D
    • Eb
    • E
    • F
    • F#
    • G
    • Ab
  • Adicionar à lista

    0 comentários

    Ver todos os comentários

    Conseguiu tocar?

    0 Tocaram 0 Ainda não

    Grave um vídeo tocando Sonhos e nos envie!

    00:00 / 00:00
    Outros vídeos desta música
    Repetir Qualidade Automático
    Outros vídeos desta música
    00:00 / 00:00
    Automático

    Cifra Club Pro

    Aproveite o Cifra Club com benefícios exclusivos e sem anúncios
    Cifra Club Pro
    Aproveite o Cifra Club com benefícios exclusivos e sem anúncios
    OK