Cifra Club

Changes

David Bowie

Tab de baixo: Principal
"Time may change me, but I cant trace time..."

Intro
1.
G|-------------------------2-2-4-2-------------------------2-2-4-2-----------------|
D|-3-3-3-3-3-3-3-3-0-0-3-4---------3-3-3-3-3-3-3-3-0-0-3-4---------3-3-3-3-3-3-3-3-|
A|---------------------------------------------------------------------------------|
E|---------------------------------------------------------------------------------|

Verse
"Still dont know what I was waiting for..."
2.
G|--------5------------------5~----------------------|
D|------5---5-2~---2-3-4-3~------3-4-5~----5-3~--2-0-|
A|-3~------------------------------------5-----------|
E|---------------------------------------------------|

"Every time I thought I'd got it made..."
3.
G|--------5----------5------------------------------|
D|------5---5-2~---2---2-3~--3~---3-4-5~--5~--5-----|
A|-3~---------------------------3---------------5-4-|
E|--------------------------------------------------|

"So I turned myself to face me..."
4.
G|-------5-------7-------9-------8-----7~--7-------------------|
D|-----5-------7-------9-------8-------------7-6-5~--5~--5-----|
A|-3~------5~------7~------6~------5~----------------------5-4-|
E|-------------------------------------------------------------|

"How the others must see the faker..."
5.
G|-------5-------7-------9-------8---------------------------|
D|-----5-------7-------9-------8-------------5-5---5-3-3---3-|
A|-3~------5~------7~------6~------5~--5~--5-----------------|
E|-----------------------------------------------------------|

Chorus
"Turn and face the strange..."
6.
G|-5-5---5-4-4---4-2-2---2-0-0---0-----------------------------------------|
D|---------------------------------3-3---3-2-2---2-0-0---0-5-5---5-3-3---3-|
A|-------------------------------------------------------------------------|
E|-------------------------------------------------------------------------|

7.
G|-5-5---5-4-4---4-2-2---2-0-0---0-------------------------2~-0~-3~--------------------------|
D|---------------------------------3-3---3-2-2---2-0-0---0----------3~----2~-0~-0~-----------|
A|---------------------------------------------------------------------------------3~--------|
E|-------------------------------------------------------------------------------------------|

Outro
8.
G|---------2-2-4-2-------------------------2-2-4-2-----------------|
D|-0-0-3-4---------3-3-3-3-3-3-3-3-0-0-3-4---------3-3-3-3-3-3-3-3-|
A|-----------------------------------------------------------------|
E|-----------------------------------------------------------------|

Verse
"I watch the ripples change their size..."
9.
G|--------5----------5-------5~----------------------|
D|------5---5-2~---2---2-3~------3-4-5~----5-3~--2-0-|
A|-3~------------------------------------5-----------|
E|---------------------------------------------------|

"So the days float through my eyes..."
10.
G|--------5----------5------------------------------|
D|------5---5-2~---2---2-3~--3~---3-4-5~--5~--5-----|
A|-3~---------------------------3---------------5-4-|
E|--------------------------------------------------|

"And these children that you spit on..."
11.
G|-------5-------7-------9-------8-----7~--7-------------------|
D|-----5-------7-------9-------8-------------7-6-5~--5~--5-----|
A|-3~------5~------7~------6~------5~----------------------5-4-|
E|-------------------------------------------------------------|

"Are immune to your consultations..."
12.
G|-------5-------7-------9-------8---------------------------|
D|-----5-------7-------9-------8-------------5-5---5-3-3---3-|
A|-3~------5~------7~------6~------5~--5~--5-----------------|
E|-----------------------------------------------------------|

Chorus
"Turn and face the strange..."
13.
G|-5-5---5-4-4---4-2-2---2-0-0---0-----------------------------------------|
D|---------------------------------3-3---3-2-2---2-0-0---0-5-5---5-3-3---3-|
A|-------------------------------------------------------------------------|
E|-------------------------------------------------------------------------|

14.
G|-5-5---5-4-4---4-2-2---2-0-0---0-------------------------2~-0~-3~----------------------------|
D|---------------------------------3-3---3-2-2---2-0-0---0----------3~----2~-0~-0~-----0~--2~--|
A|---------------------------------------------------------------------------------3~----------|
E|---------------------------------------------------------------------------------------------|

Bridge
"Strange fascination fascinating me..."
15.
G|---------------------------------------5~-55~--9~--5----|
D|-3~--3~----3---3~--3~------3---------5---------------55-|
A|---------3---3-----------3---3~--3~---------------------|
E|--------------------------------------------------------|

"Changes are taking..."
16.
G|-----5~----------------------------------------------------|
D|-3~------3-4-5-3~--3~----3-4-5~--5~----3-4-5-5-5-5-3-3-3-3-|
A|-----------------------3-------------5---------------------|
E|-----------------------------------------------------------|

Chorus
"Turn and face the strange..."
17.
G|-5-5---5-4-4---4-2-2---2-0-0---0-----------------------------------------|
D|---------------------------------3-3---3-2-2---2-0-0---0-5-5---5-3-3---3-|
A|-------------------------------------------------------------------------|
E|-------------------------------------------------------------------------|

18.
G|-5-5---5-4-4---4-2-2---2-0-0---0-------------------------2~-0~-3~--------------------------|
D|---------------------------------3-3---3-2-2---2-0-0---0----------3~----2~-0~-0~-----------|
A|---------------------------------------------------------------------------------3~--------|
E|-------------------------------------------------------------------------------------------|

"I said that time may change me..."
19.
G|-2~-0~-3~-----------------------------------------------------------------------------|
D|----------3~----2~-0~-0~------------7--------9--------------7~------------------------|
A|-------------------------3~----5~-----5-7~-----7-6~---8-5~-----5-4~---4-6-4-3~--------|
E|--------------------------------------------------------------------------------------|
00:00 / 00:00
Outros vídeos desta música
Repetir
Outros vídeos desta música
Composição de David Bowie
Colaboração e revisão:
  • Vanna
121 exibições

0 comentários

Ver todos os comentários

Conseguiu tocar?

0 Tocaram 0 Ainda não

Grave um vídeo tocando Changes e nos envie!

Entre para oCifra Club PRO

Tenha acesso a benefícios exclusivos no App e no Site

  • Chega de anúncios

  • Prioridade de compra em lançamentos

  • Mais recursos no app do Afinador

  • Atendimento Prioritário

  • Descontos nos produtos Cifra Club

  • Ajude a produzir mais conteúdo

00:00 / 00:00

Cifra Club Pro

Aproveite o Cifra Club com benefícios exclusivos e sem anúncios
Cifra Club Pro
Aproveite o Cifra Club com benefícios exclusivos e sem anúncios
OK