Cifra Club

Aprenda

Oh You Pretty Things

David Bowie

Cifra: Principal (violão e guitarra)
Já pensou em usar uma coleção de roupas do Cifra Club? Responda as perguntas abaixo e nos ajude nessa missão! →
tom: G
The only tricky chord:
        E A D G B e
FM7/E: [0 x 3 2 1 0]

[piano intro]
E|------------------------|
B|------------------------|
G|-----5----7----5--8-6-5-|
D|-6/7---8/9--6/7---8-6-5-|
A|------------------6-4-3-|
E|-----------------6-4-0--|

E|-----------------------------------------------------|
B|-----------------------------------------------------|
G|-----5----7----5--8-6-6-8-8-8-6-8-8-6-6-8-8-6-6-8-8--|
D|-6/7---8/9--6/7---8-6-6-8-8-6-6-8-8-6-6-8-8-6-6-8-8--|
A|-----------------6-4----6-6-4-4-6-6-4-4-6-6-4-4-6-6--|
E|------------------------6-6-4-4-6-6-4-4-6-6-4-4-6-6--|

F              C
   Wake up you sleepy head
G                          Dm
Put on some clothes, get out of bed
F                      C
Put another log on the fire for me
G                           D
I've made some breakfast and coffee
F                  C
Look out my window what do I see
   A7                    Dm                    Bb
A crack in the sky and a hand reaching down to me
        B                 C
All the nightmares came today
                               F
And it looks as though they`re here to stay

[piano break]
E|------------------------|
B|------------------------|
G|-6-6--5--8-8--7--6-6--5-|
D|-8-8--6--9-9--8--6-6--5-|
A|-8-8--6--9-9--8--4-4--3-|
E|-6-6--4--7-7--6---------|

F             C
  What are we coming to
G                  Dm
No room for me, no fun for you
F                C
 I think about a world to come
          G                       D
Where the books were found by the golden ones
F                C
Written in pain, written in awe
A7                   Dm
By a puzzled man who questioned
                  Bb
Why we came here for
        B              C
All the strangers came today
                              F
And it looks as though theyre here to stay

Chorus:
F      FM7/E
Oh you pretty things (oh you pretty things)
Dm          C
   Don't you know youre driving your
Bb                 F
Mama's and papa's insane
x2
       G
Let me say it again
C                          Bb            F
You gotta make way for the homo superior

Verse:
Look at your children
See their faces in golden rays
Dont kid yourself they belong to you
They're the start of a coming race
The earth is a bitch
We've finished our news
Homo sapiens have out grown their use
All the strangers came today
And it looks as though they're here to stay

Chorus

E|------------------------|
B|------------------------|
G|-----5----7----5--8-6-5-|
D|-6/7---8/9--6/7---8-6-5-|
A|------------------6-4-3-|
E|-----------------6-4-0--|

E|-----------------------------------------------------|
B|-----------------------------------------------------|
G|-----5----7----5--8-6-6-8-8-8-6-8-8-6-6-8-8-6-6-8-8--|
D|-6/7---8/9--6/7---8-6-6-8-8-6-6-8-8-6-6-8-8-6-6-8-8--|
A|-----------------6-4----6-6-4-4-6-6-4-4-6-6-4-4-6-6--|
E|------------------------6-6-4-4-6-6-4-4-6-6-4-4-6-6--|
                                 Csus4 C
E|----------------------------------------|
B|----------------------------------------|
G|-----3-3---3-3-5-5------5--------5---5--|
D|-5-5-3-3---3-3-5-5---6/7--8/7-5--3---2--|
A|-5-5-1-1---3-3-3-3---------------3---3--|
E|-3-3------------------------------------|

Composição de David Bowie
Colaboração e revisão:
  • Ana Martinez
  • Élison Duarte
10.810 exibições
    • ½ Tom
    • A
    • Bb
    • B
    • C
    • Db
    • D
    • Eb
    • E
    • F
    • F#
    • G
    • Ab
  • Adicionar à lista

    0 comentários

    Ver todos os comentários

    Conseguiu tocar?

    1 Tocaram 0 Ainda não

    Grave um vídeo tocando Oh You Pretty Things e nos envie!

    00:00 / 00:00
    Outros vídeos desta música
    Repetir Qualidade Automático
    Outros vídeos desta música
    00:00 / 00:00
    Automático

    Cifra Club Pro

    Aproveite o Cifra Club com benefícios exclusivos e sem anúncios
    Cifra Club Pro
    Aproveite o Cifra Club com benefícios exclusivos e sem anúncios
    OK