Enviar cifraEntrar

Ziggy Stardust

David Bowie

Tab de baixo: Principal
exibições 11.765
G:----------------------------------------------------------------------------
D:-5---------------------3-5---------------------3-5---------------------3-5--
A:-------5-----3---2---0---------5-----3---2---0---------5-----3---2---0------
E:----------------------------------------------------------------------------

G:-------------------4-4-4-3-4-5-----5-4-5-6-7--/9-7---------------------9----
D:-----5-3---------4-----------------------------------9-7---5---5-4-5-7------
A:--5------5-2----------------------------------------------------------------
E:----------------------------------------------------------------------------

G:-9---9-7-----------------------------------------
D:---9-----9-7-------7-7-7-----------------3-4-5---
A:-----------------7-------0-2-3-----3-2-3---------
E:-------------------------------------------------

G:-------------------4-4-4-3-4-5-----5-4-5-6-7--/9-7-------------------7-8-9--
D:-----5-3---------4-----------------------------------9-7---5---5-4-5--------
A:--5------5-2----------------------------------------------------------------
E:----------------------------------------------------------------------------

G:---9-9--------------------------------------
D:-------9-8-7-------7-7-7--------------------
A:-----------------0-------0-2-3-----3-2-3-5--
E:--------------------------------------------

---> REFRÃO
                                                      __      
G:---------------------------------------------------/  \ \  /
D:-7-7-7-7-7----5-5-5-5-5----3--2--3--2--3--2--3--5--  _/  \/ 
A:---------------------------------------------------   \  /\ 
E:---------------------------------------------------\__/ /  \

G:------7---7-5--------------------------
D:----7---7-----7-7-5-----------------4--
A:-5------------------8-7-7-7-7-7-7-7----
E:---------------------------------------

< ---

G:----------------------------------------------
D:-----------------3-5---------------------3-5--
A:-5-----3---2---0---------5-----3---2---0------
E:----------------------------------------------

G:-------------------4-4-4-3-4-5-----5-4-5-6-7--/9-7-------------------7-8-9--
D:-----5-3---------4-----------------------------------9-7---5---5-4-5--------
A:--5------5-2----------------------------------------------------------------
E:----------------------------------------------------------------------------

G:---9-9--------------------------------------
D:-------5-6-7-------7-7-7--------------------
A:-----------------0-------0-2-3-----3-2-3-5--
E:--------------------------------------------

> > > > REFRÃO < < < <

G:----------------------------------------------------------------------------
D:-5---------------------3-5---------------------3-5---------------------3-5--
A:-------5-----3---2---0---------5-----3---2---0---------5-----3---2---0------
E:----------------------------------------------------------------------------

G:----------------------------------------------------------------------------
D:-5---------------------------------5-------------5-------------5------------
A:-------5-----3--------------------------------------------------------------
E:----------------------------3-------------3-------------3-------------3-----



_______________________________________________________
Contribuição: Leonardo Pacheco(leo@nobox.com.br)
  • 1
  • 2
  • 3
  • 4
  • 5
  • 6
  • 7
  • 8
  • 9
  • 10
  • 11
  • 12
    Composição: David Bowie

    0 comentários

      mostrar mais comentários

      Conseguiu tocar?

      1tocaram0ainda não

      Grave um vídeo tocando Ziggy Stardust e mande pra gente!

      00:00 / 00:00
      outros vídeos desta música
      repetirqualidadeautomática
      • automática
      Outro vídeos desta música
        00:00 / 00:00
        automática
        • automática
        3 versões de Tab de baixoexibiçõescontribuições
        1 versão de Tab de gaitaexibiçõescontribuições
        3 versões de Guitar Proformatodownloadscontribuição
        fecharplay/pause subir/descer velocidade
        fechar
        OK
        Feedback