Cifra Club

Disappearing World

David Gray

Cifra: Principal (violão e guitarra)
tom: G
I learnt how to play this song when I started to play guitar as it was about 4 chords 
was a nice easy pace, now that I am better I revisited it and changed it slightly to just 
it less dull than simply strumming.

Basically if you just play this for all the chords instead of just strumming them down 
way it sounds far better:

e)-------2-----------3------------------------0-------!
B)-----3---3-------3---2----------2-------------2-----!
G)---2-------2---2-------3------2---2-------2-----2--o!     Part 1
D)-0-----------0--------------2-------2---2----------o!     (D, A)
A)--------------------------0-----------0-------------!
E)----------------------------------------------------!

e)--------------------3-----------------------0-------!
B)-------3--------------3---------3-------------3-----!
G)-----0---0-------0------0-----2---2-------2-----2---!     Part 2
D)---0-------0---0------------2-------2---2-----------!   (G, Asus4)
A)--------------------------0-----------0-------------!
E)-3-----------3--------------------------------------!

The words go as so:

Intro:

Part 1 repeated 4 times (or however many you like)

Verse:

Slowley the truth is loading   (Part 1)
I'm weighted down with love    (Part 1)
Snow lying deep and even       (Part 1)
Strung out and dreaming of...  (Part 2)

Chorus:

Night falling on the city      (Part 1)
Quite Something to behold      (Part 1)
Don't it just look so pretty   (Part 2)
This disappearing world        (Part 1)

Verse:

They're threading hope like fire  (Part 1)
Down through the deperate blood   (Part 1)
Down through the trailing wire    (Part 1)
Into the leafless wood            (Part 2)

(Repeat chorus)

Bridge: (you can break into strumming here or continue to finger pick the chords)
E                  G
I'll be sticking right here with it
        D        A
I'll be by your side
E                G
Sailing like a silver bullet
           D         A
Hit them between the eyes
E                      G
Through the smoke and rising water
           D       A
Across the great divide
E          G
Baby till it all feels right
D     A     D     A                (Part 1 for these chords)

(Repeat chorus and repeat last line a couple of times until you want to end)
Composição de David Gray
432 exibições
    • ½ Tom
    • A
    • Bb
    • B
    • C
    • Db
    • D
    • Eb
    • E
    • F
    • F#
    • G
    • Ab
  • Adicionar à lista

    0 comentários

    Ver todos os comentários

    Conseguiu tocar?

    0 Tocaram 0 Ainda não

    Grave um vídeo tocando Disappearing World e nos envie!

    00:00 / 00:00
    Outros vídeos desta música
    Repetir Qualidade Automático
    Outros vídeos desta música
    00:00 / 00:00
    Automático

    Cifra Club Pro

    Aproveite o Cifra Club com benefícios exclusivos e sem anúncios
    Cifra Club Pro
    Aproveite o Cifra Club com benefícios exclusivos e sem anúncios
    OK