Cifra Club

Tribo da Lua

Dazaranha

Cifra: Principal
exibições 35.816
Tom: D
Intro: Bm A

Riff 1

e|--20-------------------20---------------17~--
B|-----19-19-19~--19-15~----19-19-19~--15------


Bm       A                Bm   Riff 2     A
Nós, tribo da lua iluminada

Riff 2

G|--4-6-6h7-6-4-2--

                  
      Bm     A                 Bm   Riff 3
Abre asas, nossa canoa vai partir

Riff 3

B|--9h10-8-7--

                  
A               G        A
Decerto é de madrugada 
                  
                       Bm   A   Riff 4   Bm   A 
Pra ninguém ver e nem ouvir

Riff 4

e|--20--------------------
B|-----19-19-19~--19-15~--

                  
Bm              A                   G
De um lado um dragão, do outro um índio 
                 
           A                Bm
A lua de fundo pra figura sorrindo 
                  
         G             A         Bm     Riff 5
A ilha acordando e a malucada dormindo

Riff 5

e|--20---------------17--
B|-----19-19-19~--15-----


Bm       A                Bm   Riff 2     A
Nós, tribo da lua iluminada

Riff 2

G|--4-6-6h7-6-4-2--

                  
      Bm     A                 Bm   Riff 3
Abre asas, nossa canoa vai partir

Riff 3

B|--9h10-8-7--

                  
A               G        A
Decerto é de madrugada 
                  
                       Bm   A   Riff 4   Bm   A 
Pra ninguém ver e nem ouvir

Riff 4

e|--20--------------------
B|-----19-19-19~--19-15~--


SOLO       Bm G A Bm A Bm G A Bm G A
e|-----------------------------------------------------------
B|-----------------------------------------------------------
G|------7h9-9--7h9-11h12-11-9--------------------------------
D|--7h9-----------------------12-11h7h9-9-9-9----------------
A|------------------------------------------------5h7-7-7-7--
E|--------------------------------------------5h7------------


Bm       A                Bm   Riff 2     A
Nós, tribo da lua iluminada

Riff 2

G|--4-6-6h7-6-4-2--

                  
      Bm     A                 Bm   Riff 3
Abre asas, nossa canoa vai partir

Riff 3

B|--9h10-8-7--

                  
A               G        A
Decerto é de madrugada 
                  
                       Bm   A   Riff 4   Bm   A 
Pra ninguém ver e nem ouvir

Riff 4

e|--20--------------------
B|-----19-19-19~--19-15~--


Bm              A                   G
De um lado um dragão, do outro um índio             
           A                Bm
A lua de fundo pra figura sorrindo              
         G             A         Bm     Riff 5
A ilha acordando e a malucada dormindo

Riff 5

e|--20---------------17--
B|-----19-19-19~--15-----


Solo de Violino
Acordes para:
    Colaboração e revisão:
    • raoni caselli

    0 comentários

      mostrar mais comentários

      Conseguiu tocar?

      0tocaram0ainda não

      Grave um vídeo tocando Tribo da Lua e mande pra gente!

      00:00 / 00:00
      outros vídeos desta música
      repetirqualidadeautomática
      Outro vídeos desta música
        00:00 / 00:00
        automática
        OK