Cifra Club

Minds Eye

dc talk

Cifra: Principal (violão e guitarra)
Selo Cifra Club: esta cifra foi revisada para atender aos critérios oficiais da nossa Equipe de Qualidade.
tom: F
INTRO
E|-------------------------------------------------|
B|-------------------------------------------------|
G|--------------5~~------2-------------------------|
D|----------5-7------3-5---5~---3-2p0-2-0----------| x2
A|--5~~-5-8-------------------------------3-5------|
E|-------------------------------------------------|


DURING THE VERSES ONLY THE BASS PA YS EXCEPT FOR A SMALL PART WHICH GOES LIKE:

E|--------------|
B|--------------|
G|--------------|
D|--3-2-0-------|
A|--3-2-0-------|
E|--3-2-0-------|

PD-C HORUS
(PALM MUTED)
E|----------|
B|----------|
G|--7-7-7-7-|
D|--7-7-7-7-| x12
A|--5-5-5-5-|
E|----------|

CHORUS
E|--------------------| ------------|
B|--------------------| ------------|
G|----------------3/5-| ----3/5-----|
D|----3---5---0---3/5-| x2 -0--3/5--|
A|----3---5---0---1/3-| -0--1/3-----|
E|----3---5---0-------| -0----------|

INTRO 2
(AFTER 2ND CHORUS)
E|--------------------------------------------------|
B|--------------------------------------13^-13^-13^-|
G|--------------5~~------10-12-14-12~~--12^-12^-12^-|
D|----------5-7-----(12)----------------------------|
A|--5~~-5-8-----------------------------------------|
E|--------------------------------------------------|

E|------------------|
B|-13^-13-14-15\0---|
G|-12^-12-13-14\0---|
D|------------------|
A|------------------|
S------------------|
Outros vídeos desta música
    9 exibições
      • ½ Tom
      • A
      • Bb
      • B
      • C
      • Db
      • D
      • Eb
      • E
      • F
      • F#
      • G
      • Ab
    • Adicionar à lista

    Afinação da cifra

    Afinador online

      0 comentários

      Ver todos os comentários

      Entre para o Cifra Club PRO

      Tenha acesso a benefícios exclusivos no App e no Site

      • Chega de anúncios

      • Mais recursos no app do Afinador

      • Atendimento Prioritário

      • Aumente seu limite de lista

      • Ajude a produzir mais conteúdo

      Cifra Club Pro

      Aproveite o Cifra Club com benefícios exclusivos e sem anúncios
      Cifra Club Pro
      Aproveite o Cifra Club com benefícios exclusivos e sem anúncios
      OK