Cifra Club

Aprenda

912 Passos

Dead Fish

Cifra: Principal (violão e guitarra)
tom: Ab (forma dos acordes no tom de A) Afinação: Eb Ab Db Gb Bb Eb
[Intro]

E5 E5 E5  F#5 

E|--------------------------------|
B|--------------------------------|
G|-----7-------7-------7~~~~------|
D|-9-------9-------9-----9~~~~----|
A|---9---9---9---9---9-----9~~~~--|
E|--------------------------------|

[Intro]

   Base
E|-------------------------------------------------------------------------|
B|-------------------------------------------------------------------------|
G|-------------------------------------------------------------------------|
D|-----2---4--4-4-4-4-4-4--4p2---2-----------------------------------------| (2x)
A|-2/4---4---------------------4----4-2---------2-4------------------------|
E|--------------------------------------5-5-5-5------0-0-0-0-0h2-2-2-2-2-2-|

   Solo
E|-------------------------------------------------------------------------|
B|-------------------------------------------------------------------------|
G|------9----11--11-11-11-11--11p9----9------------------------------------|
D|-9/11---11-----------------------11----11-9-------------------6~~~-7~~~-|
A|--------------------------------------------12-12-12-12------------------|
E|-------------------------------------------------------------------------|

E|--------------------------------------------------------------------------------------------12-14--|
B|-------------------------------------9-9-9--9p7-10-10--10p9-12-12--12p10-14-14-14-14-14--14--------|
G|------9----11--11-11-11-11--11p9-------------------------------------------------------------------|
D|-9/11---11-----------------------11----------------------------------------------------------------|
A|---------------------------------------------------------------------------------------------------|
E|---------------------------------------------------------------------------------------------------|

[Parte]

   F#5            Db5 D5 Db5  F#5        Db5 D5 Db5 A5 E5
E|------------------------------------------------------------|
B|------------------------------------------------------------|
G|------------------------------------------------------------|
D|------------------6/7/6------------------6/7/6-------9------|
A|-4-x-x-x-x-x-x----4/5/4------4-x-x-x-----4/5/4----7--7------|
E|-2-2-2-2-2-2-2---------------2-2-2-2--------------5---------|

   F#5                     Db5 D5 Db5  F#5      Db5 D5 Db5  A5 B5
E|----------------------------------------------------------------|
B|----------------------------------------------------------------|
G|----------------------------------------------------------------|
D|----------------------------6/7/6----------------6/7/6----2--4--|
A|-4-x-x-x-x-x-x-x-x-x-x-x----4/5/4----4-x-x-x-----4/5/4----0--2--|
E|-2-2-2-2-2-2-2-2-2-2-2-2-------------2-2-2-2--------------------|

Até que tentei relevar e viver o momento
Deixar de lado o sofrimento e tudo o que vejo

  F#5   Db5    D5 Db5 A5 E5  F#5    Db5  D5 Db5 E5 A5     
E|------------------------------------------------------------|
B|------------------------------------------------------------|
G|------------------------------------------------------------|
D|--------6---6/7/6------9-----------6--6/7/6------2----------|
A|-4-x-x--4---4/5/4---7--7----4-x-x--4--4/5/4---2--0----------|
E|-2-2-2--------------5-------2-2-2-------------0-------------|

P.M  ...                        ...

  F#5    Db5    D5       A5      B5     E/Ab     A5     Db/F
E|----------------------------------------------------------------|
B|----------------------------------------------------------------|
G|----------------------------------------------------------------|
D|--------6---6/7-7-7---------------------------------------------|
A|-4-x-x--4---4/5-5-5---7-7-7---9-9-9---7-7-7---7-7-7---4-x-x-4-x-|
E|-2-2-2----------------5-5-5---7-7-7---4-4-4---5-5-5---1-x-x-1-x-|

P.M  ...                                                  ...  ... 

Não olhar para o lado... Não é necessário
Verdades são verdades vão
Mundos herméticos paralelos sobrepostos!

[Refrão]

   Base
E|-------------------------------------------------------------------------|
B|-------------------------------------------------------------------------|
G|-------------------------------------------------------------------------|
D|-----2---4--4-4-4-4-4-4--4p2---2-----------------------------------------|
A|-2/4---4---------------------4----4-2---------2-4------------------------|
E|--------------------------------------5-5-5-5------0-0-0-0-0h2-2-2-2-2-2-|

E|-------------------------------------------------------------------------|
B|-------------------------------------------------------------------------|
G|-------------------------------------------------------------------------|
D|-----2---4--4-4-4-4-4-4--4p2---2-----------------------------------------|
A|-2/4---4---------------------4----4-2--------2-4-------------------2-2-4-|
E|--------------------------------------5-5-5-------0-0-0h2-2-2-2-2--0-0-2-|

   Solo
E|-------------------------------------------------------------------------|
B|-------------------------------------------------------------------------|
G|------9----11--11-11-11-11--11p9----9------------------------------------|
D|-9/11---11-----------------------11----11-9-------------------6~~~-7~~~-|
A|--------------------------------------------12-12-12-12------------------|
E|-------------------------------------------------------------------------|

E|--------------------------------------------------------------------------------------------12-14--|
B|-------------------------------------9-9-9--9p7-10-10--10p9-12-12--12p10-14-14-14-14-14--14--------|
G|------9----11--11-11-11-11--11p9-------------------------------------------------------------------|
D|-9/11---11-----------------------11----------------------------------------------------------------|
A|---------------------------------------------------------------------------------------------------|
E|---------------------------------------------------------------------------------------------------|

Conto os passos pra ser racional
Zero tudo quando chego em nenhum lugar

[Parte B]

   F#5          B5           A5            D5
E|------------------------------------------------------|
B|------------------------------------------------------|
G|----------------------------------------7-7-7-7-7-7---|
D|--------------4-x-x-x-x-x--2-x-x-x-x-x--7-7-7-7-7-7---|
A|-4-x-x-x-x-x--2-2-2-2-2-2--0-0-0-0-0-0--5-5-5-5-5-5---|
E|-2-2-2-2-2-2------------------------------------------|
                                                           (2X)
   F#5          B5           A5            E5
E|------------------------------------------------------|
B|------------------------------------------------------|
G|------------------------------------------------------|
D|--------------4-x-x-x-x-x--2-x-x-x-x-x--2-2-2-2-2-2---|
A|-4-x-x-x-x-x--2-2-2-2-2-2--0-0-0-0-0-0--2-2-2-2-2-2---|
E|-2-2-2-2-2-2----------------------------0-0-0-0-0-0---|


Quem precisa do seu sorriso, quem precisa se esforçar?
Todos nós sabemos o desprezo é mútuo
Não me cobre não me culpe, por agir como você
Sem demagogia, mas ninguém quer saber!

  F#5   Db5    D5 Db5 A5 E5  F#5    Db5  D5 Db5 E5 A5     
E|------------------------------------------------------------|
B|------------------------------------------------------------|
G|------------------------------------------------------------|
D|--------6---6/7/6------9-----------6--6/7/6------2----------|
A|-4-x-x--4---4/5/4---7--7----4-x-x--4--4/5/4---2--0----------|
E|-2-2-2--------------5-------2-2-2-------------0-------------|

P.M  ...                        ...

  F#5    Db5  D5      A5     B5     E/Ab   A5     Db/F
E|-------------------------------------------------------------------------|
B|-------------------------------------------------------------------------|
G|-------------------------------------------------------------------------|
D|--------6-6/7-7-7--------------------------------------------------------|
A|-4-x-x--4-4/5-5-5---7-7-7--9-9-9--7-7-7--7-7-7---4-x-x-4-x-x-4-x-x-4-x-x-|
E|-2-2-2--------------5-5-5--7-7-7--4-4-4--5-5-5---1-x-x-1-x-x-1-x-x-1-x-x-|

P.M  ...                                                  ...   ...   ...
Verdades não, verdades vão
Verdades são verdades!
Verdades não, verdades vão
Quem precisa saber? 
Quem precisa saber?

[Refrão]

Conto os passos pra ser racional
Zero tudo quando chego em nenhum lugar

[Parte C]

F#5
um, dois, três, começo tudo outra vez
O meu caminho é o foco, no mar cartesiano e numa regra de três

E|-----------------------------------------------------------|
B|-----------------------------------------------------------|
G|-------11~~~------------------------------11~~~------------|
D|-------10~~~-----------------(3x)---------10~~~------------|
A|-4-2-2-9~~~~--------3p0-------------4-2-2-9~~~~-2-2-2-2-2--|
E|-2-0-0--------0-2p0-----2p0---------2-0-0-------0-0-0-0-0--|

E|-----------------------------------------------------------|
B|-----------------------------------------------------------|
G|-------11~~~------------------------------11~~~-11--11--11-|
D|-------10~~~-----------------(3x)---------10~~~-10--10--10-|
A|-4-2-2-9~~~~--------3p0-------------4-2-2-9~~~~-9---9---9--|
E|-2-0-0--------0-2p0-----2p0---------2-0-0------------------|

nestor pestana cruzo a consolação
Desço a rua araújo, olho pro chão! Ignoro o copan
Estação república! A multidão ninguém é humano
Mas vai ficar tudo bem!

[Refrão]

Vejo fatos da vida real
Tão distantes que mal chegam a me afetar
Conto os passos pra ser racional
Zero tudo quando chego em nenhum lugar


[Final] 4x

E|-------------------------|
B|-------------------------|
G|-------------------------|
D|---2---4-----2-----------|
A|-4---4-----4---4---------|
E|-----------------2-2-2---|
Composição de Dead Fish
Colaboração e revisão:
  • Renan Luiz
86 exibições
    • ½ Tom
    • A
    • Bb
    • B
    • C
    • Db
    • D
    • Eb
    • E
    • F
    • F#
    • G
    • Ab
  • Adicionar à lista

    0 comentários

    Ver todos os comentários

    Conseguiu tocar?

    0 Tocaram 0 Ainda não

    Grave um vídeo tocando 912 Passos e nos envie!

    00:00 / 00:00
    Outros vídeos desta música
    Repetir Qualidade Automático
    Outros vídeos desta música
    00:00 / 00:00
    Automático

    Cifra Club Pro

    Aproveite o Cifra Club com benefícios exclusivos e sem anúncios
    Cifra Club Pro
    Aproveite o Cifra Club com benefícios exclusivos e sem anúncios
    OK