Cifra Club

Aprenda

A Cura

Dead Fish

Cifra: Principal (violão e guitarra)
Tom: G
Riff 1
E|-----------------------------------------------------------
B|-----------------------------------------------------------
G|-----------------------------------------------------------
D|----7-9-10---7-9-10---7-9-10-10----------------------------
A|----7-9-10---7-9-10---7-9-10-10----------------------------
E|----5-7-8----5-7-8----5-7-8--8-----------------------------

Riff 2
E|-----------------------------------------------------------
B|-----------------------------------------------------------
G|-----------------------------------------------------------
D|-----------------------------------------------------------
A|--------------------------*-*-*----------------------------
E|----5-7-8-8-8-8-5-7-8-8-8-5-7-8-8-8-8----------------------
Tocar abafado (PM)
*fazer essa transição 5-7-8 mais rápida

Riff 3          
E|-----------------------------------------------------------
B|----------------------*--*---------------------------------
G|------7--5------7--5--4--5------7--5------7----------------
D|---5--7--5---5--7--5--4--5---5--7--5---5--7----------------
A|---5--5--3---5--5--3--2--3---5--5--3---5--5----------------
E|---3---------3---------------3---------3-------------------
Tocar 6x cada nota - *tocar 3x

Riff 4
E|-------------
B|-------------
G|----------*--
D|----------5--
A|-------------
E|----5-7-8----
Essa parte deve ser tocada abafada (PM) exceto *

Riff 5 (segunda guitarra)
E|--*---*--*----*---------------------------------------------
B|--8--10--12--13----13/12--12/10-10/8--8---------------------
G|------------------------------------------------------------
D|------------------------------------------------------------
A|------------------------------------------------------------
E|------------------------------------------------------------
*Tocar varias vezes e rápido

Riff 6
E|----6x-3x-3x---6x-3x-3x--6x-3x-3x---12x---------------------
B|------------------------------------------------------------
G|----5--4--5----5--4--5---5--4--5----5-----------------------
D|----5--4--5----5--4--5---5--4--5----5---5-------------------
A|----3--2--3----3--2--3---3--2--3----3---5-------------------
E|----------------------------------------3-termina-----------


xxxxxxxxxxxxxxxxxxxxxxxxxxxxxxxxxxxxxxxxxxxxxxxxxxxxxxxxxxxx

Intro: Riff 1 4x

(Riff 2 4x)
dois mil anos mais apenas por termos fechado 
os olhos algumas vezes, até quando a culpa!

(Riff 3)
Sublimar o que é ruim, apontar o dedo assim 
acreditar na redenção
Se o pior está aí não posso estar em seu lugar
certo demais! puro demais!

Riff 4 12x

(Riff 2 4x)
vidas fogem ao controle com as armas os beijos 
carregados do seu pecado, frágeis, intensos

(Riff 3 2x)
se deleguei o meu poder, controlado controlar
toda dor será prazer 
e todo orgulho esconderá que me mato em você
a razão da vida é... 

Riff 4 12x

(Riff 4 12x)(segunda guitarra faz Riff 5)
e toda dor e todo prazer e todo sexo e poder 
e nos discursos feitos pelo bem. onde errei!? 

(Riff 3)
quantas vezes vamos desistir?
quantas vezes omitir! 
culpar por culpa, curar sem cura 
e se em dois mil anos eu me *curar?  
(Riff 6) 
e você não estiver mais aqui...



eu acho que eh mais ou menos isso..
Rodrigo J. - guitarrista da banda BROKEN4
Composição de Dead Fish
Colaboração e revisão:
  • Rodrigo Souza
27.032 exibições
    • ½ Tom
    • A
    • Bb
    • B
    • C
    • Db
    • D
    • Eb
    • E
    • F
    • F#
    • G
    • Ab
  • Adicionar à lista

    0 comentários

    Mostrar mais comentários

    Conseguiu tocar?

    0 Tocaram 0 Ainda não

    Grave um vídeo tocando A Cura e mande pra gente!

    00:00 / 00:00
    outros vídeos desta música
    repetir qualidade Automático
    Outros vídeos desta música
    00:00 / 00:00
    Automático

    Cifra Club Pro

    Aproveite o Cifra Club com benefícios exclusivos e sem anúncios
    Cifra Club Pro
    Aproveite o Cifra Club com benefícios exclusivos e sem anúncios
    OK