Cifra Club

Aprenda

A urgência

Dead Fish

Cifra: Principal (violão e guitarra)
Tom: A
(Intro) F# B G F# 

E|------------------------
B|------------------------
G|-------6--6--6--6--6----   varias vezes
D|-------*--*--*--*--*----
A|-------4--4--4--4--4----
E|------------------------

(Obs: A música ñ tem bem uma intro porque ela já começa com "hoje é o
dia da revoluçao" logo na 1ª vez q fazemos a sequencia (F# B G F# ) ele
já fala "hoje é o Dia da revolução" e é essa sequencia que inicia a
música!)

(verso 1)
(F# B G F#)
Toque do Mesmo jeito que a intro
Hoje é o dia da revolução
Não há nínguém nas ruas
Você está sozinho
Pronto pra sujar as mãos!

(riff 1) F# D A E

G|-----6-----11------9-------7------6------7------4-----9------------------------------------|
D|-------------------------------------------------------------------------------------------|
A|--4------9-------7-------5------4-----5------2-----7---------------------------------------|
E|-------------------------------------------------------------------------------------------|

(verso 2)
(F# A D)
Muito antes de dizer
Não havia tempo pra agir
Esquecer tudo que leu
Más teorias pra cuspir
(F# A D)
Muitos já tentaram 
muitos vão morrer
Seja justo não ha causa...

(refrão)
(D E C# F#) 
Há urgência em estar vivo!
Outra forma de pensar!

(F# B G F#)
Mais do que esperar
Mais do que dizer
Eu preferia te ver
No fundo dos seus olhos...
Descobri!

(F# A D)
Se há deuses ou heróis
Bandas  compras  drogas
pra usar
Tantas coisas pra salvar
Dê a tudo isso algum valor
(F# A D)
Onde quer que pise
ande onde quiser
Aceite as consequências do
que acha que te faz melhor...
(D E C# F#)
Há urgência em estar vivo!
Outra forma de Agir!
Desrespeitar sua constante dor.....

(ponte) F# D A E

G|-----6-----11------9-------7------6------7------4-----9------------------------------------|
D|-------------------------------------------------------------------------------------------|
A|--4------9-------7-------5------4-----5------2-----7---------------------------------------|
E|-------------------------------------------------------------------------------------------|

(D E C# F#)
Há urgência em estar vivo!
Outra forma de Pensar!
E assumir outro valor.....

(F# A D F# A D F# A D)
Implodir
Implodir
Implodir de novo...
Composição de Dead Fish
Colaboração e revisão:
  • Edipo zanon
  • vitor andrade
74.331 exibições
    • ½ Tom
    • A
    • Bb
    • B
    • C
    • Db
    • D
    • Eb
    • E
    • F
    • F#
    • G
    • Ab
  • Adicionar à lista

    0 comentários

    Mostrar mais comentários

    Conseguiu tocar?

    0 Tocaram 0 Ainda não

    Grave um vídeo tocando A urgência e mande pra gente!

    00:00 / 00:00
    outros vídeos desta música
    repetir qualidade Automático
    Outros vídeos desta música
    00:00 / 00:00
    Automático
    OK