Cifra Club

Aprenda

Apagão

Dead Fish

Cifra: Principal (violão e guitarra)
Tom: F# (forma dos acordes no tom de G) Afinação: Eb Ab Db Gb Bb Eb
[Intro]

  G5  E5          D5
E|-------------------------------|
B|-------------------------------|
G|-------------------------------|
D|----------------/7~~~----------|
A|-5--2-2--2------/5~~~----------|
E|-3--0-0--0h3p0-------6~~~------|

    G5      Bb5    F#5      A5
E|-------------------------------|
B|-------------------------------|
G|-------------------------------|
D|-------------------------------|
A|--5-5---5-8-8---8-4-4---4-7-7--|
E|--3-3---3-6-6---6-2-2---2-5-5--|

[Primeira Parte]

  G5  E5          D5
E|-------------------------------|
B|-------------------------------|
G|-------------------------------|
D|-------------------------------|
A|----------------/5~~~----------|
E|-3--0-0--0h3p0-------6~~~------|

    G5      Bb5    F#5      A5
E|-------------------------------|
B|-------------------------------|
G|-------------------------------|
D|-------------------------------|
A|--5-5---5-8-8---8-4-4---4-7-7--|
E|--3-3---3-6-6---6-2-2---2-5-5--|

Fez-se o tumulto
E a desinformação
Daí surgiu a oportunidade
Se instala o medo
E a insensatez
Que não aflige quem tem muro e grade

[Refrão]

A5       G5  Bb5         A5
  Quando al guém vier bater
      G5  Bb5
  A sua   porta a noite
 A5        G5  Bb5           A5
  E não tiver   a quem recorrer como será?

[Segunda Parte]

  G5  E5          D5
E|-------------------------------|
B|-------------------------------|
G|-------------------------------|
D|-------------------------------|
A|----------------/5~~~----------|
E|-3--0-0--0h3p0-------6~~~------|

    G5      Bb5    F#5      A5
E|-------------------------------|
B|-------------------------------|
G|-------------------------------|
D|-------------------------------|
A|--5-5---5-8-8---8-4-4---4-7-7--|
E|--3-3---3-6-6---6-2-2---2-5-5--|

Quando o discurso
É posto em ação
Daí talvez já seja muito tarde
No ponto cego
O grito é em vão
A vida tem suas fatalidades

[Refrão]

A5       G5  Bb5         A5
  Quando al guém vier bater
      G5  Bb5
  A sua   porta a noite
 A5        G5  Bb5           A5
  E não tiver   a quem recorrer como será?

[Ponte] 

E|------------------------------|
B|------------------------------|
G|-11/10--10-10-----11/10--7-7--|
D|-x--x---x--x------x--x---x-x--|
A|-9-/8---8--8------9-/8---5-5--|
E|------------------------------|

[Terceira Parte]

E|---------------------------------------|
B|---------------------------------------|
G|---------------------------------------|
D|---------------------------------------|
A|---------------------------------------|
E|-12p0--0-0---12p0--0-0---12p0-0-0------|

Cegando o bairro e o estado
Cegos de cima a baixo
Incentivando a privada em detrimento de todos
Uma cagada liberal
Imediatista imoral
O fascismo informal                  
Noite infértil, escura, longa e fria

E5
O grito é em vão

[Quarta Parte]

  G5  E5          D5
E|-------------------------------|
B|-------------------------------|
G|-------------------------------|
D|-------------------------------|
A|----------------/5~~~----------|
E|-3--0-0--0h3p0-------6~~~------|

    G5      Bb5    F#5      A5
E|-------------------------------|
B|-------------------------------|
G|-------------------------------|
D|-------------------------------|
A|--5-5---5-8-8---8-4-4---4-7-7--|
E|--3-3---3-6-6---6-2-2---2-5-5--|

Os absurdos
Em meio ao apagão
A quem foi dada legitimidade?
Cegos e surdos
Em meio ao apagão           
G5  Bb5  F#5  A5
A vida tem suas fatalidades

  G5      Bb5   F#5  A5
Batendo a sua   por--ta
   G5      Bb5  F#5  A5
Em meio a escuridão
    G5    Bb5   F#5 
Ninguém ouve ou vê
Composição de Marcão Melloni / Ric Mastria / Rodrigo Lima
Colaboração e revisão:
  • Renan Luiz
27 exibições
    • ½ Tom
    • A
    • Bb
    • B
    • C
    • Db
    • D
    • Eb
    • E
    • F
    • F#
    • G
    • Ab
  • Adicionar à lista

    0 comentários

    Mostrar mais comentários

    Conseguiu tocar?

    0 Tocaram 0 Ainda não

    Grave um vídeo tocando Apagão e mande pra gente!

    00:00 / 00:00
    outros vídeos desta música
    repetir qualidade Automático
    Outros vídeos desta música
    00:00 / 00:00
    Automático

    Cifra Club Pro

    Aproveite o Cifra Club com benefícios exclusivos e sem anúncios
    Cifra Club Pro
    Aproveite o Cifra Club com benefícios exclusivos e sem anúncios
    OK