Cifra Club

Aprenda

Aprendendo A Dirigir

Dead Fish

Cifra: Principal (violão e guitarra)
tom: D
INTRO

Guitarra #1 e #2

e|-55-555-555-555-555-555-555-55555\2-|
G|-55-555-555-555-555-555-555-55555\2-|
B|------------------------------------|
D|------------------------------------|
A|------------------------------------|
E|------------------------------------|


VERSO

Guitarra #1

Começo: E|-5/9\2-|

A5 G5 (2x)


Guitarra #2 (4x)

e|-------------------------------------------------|
G|-------------------------------------------------|
B|-14-14-14-14-16-16-16-16-14-14-14-14-18-18-18-18-|
G|--x--x--x--x--x--x--x--x--x--x--x--x--x--x--x--x-|
A|-12-12-12-12-14-14-14-14-12-12-12-12-16-16-16-16-|
E|-------------------------------------------------|

e|-------------------------------------------------|
G|-------------------------------------------------|
B|-14-14-14-14-16-16-16-16-14-14-14-14-18-18-19-19-|
D|--x--x--x--x--x--x--x--x--x--x--x--x--x--x--x--x-|
A|-12-12-12-12-14-14-14-14-12-12-12-12-16-16-17-17-|
E|-------------------------------------------------|


REFRÃO


Guitarra #1 (2x)

e|----------------------0~----------------------------------------------------------------|
G|----------------------0~----------------------------------------------------------------|
B|----------------------1~----------------------------------------------------------------|
D|-2~-------------------2~------------------5-5-5-5-5-5-5-5-5-5-5-5-5-5-5-5-5-5-5-5-5-5-5-|
A|-2~---------------------------------------5-5-5-5-5-5-5-5-5-5-5-5-5-5-5-5-5-5-5-5-5-5-5-|
E|-0~---------------------------------------3-3-3-3-3-3-3-3-3-3-3-3-3-3-3-3-3-3-3-3-3-3-3-|


Guitarra #2 (2x)

e|-----------------------------------------------------------------------------------------|
G|-----------------------------------------------------------------------------------------|
B|---------9-9-9-9-11-11-11-11-14-14-14-14-11-11-11-11-14-14-14-14-11-11-11-11-14-14-14-14-|
D|-2-2-2-2-x-x-x-x--x--x--x--x--x--x--x--x--x--x--x--x--x--x--x--x--x--x--x--x--x--x--x--x-|
A|-2-2-2-2-7-7-7-7--9--9--9--9-12-12-12-12--9--9--9--9-12-12-12-12--9--9--9--9-12-12-12-12-|
E|-0-0-0-0---------------------------------------------------------------------------------|


VERSO

REFRÃO

FINAL


Guitarra #1

e|----------------------------------|
G|----------------------------------|
B|-5-5-5-5-5-7-7-7-7-7-5-5-5-5-5-9~-|
D|-5-5-5-5-5-x-x-x-x-x-x-x-x-x-x-x--|
A|-3-3-3-3-3-5-5-5-5-5-3-3-3-3-3-7~-|
E|---*******---*******---*******----|


Guitarra #2

e|----------------------------------|
G|----------------------------------|
B|-5-5-5-5-5-7-7-7-7-7-5-5-5-5-5-9~-|
D|-5-5-5-5-5-7-7-7-7-7-5-5-5-5-5-9~-|
A|-3-3-3-3-3-5-5-5-5-5-3-3-3-3-3-7~-|
E|---*******---*******---*******----|

* = palm mute
Colaboração e revisão:
  • Alan Elias
4.915 exibições
    • ½ Tom
    • A
    • Bb
    • B
    • C
    • Db
    • D
    • Eb
    • E
    • F
    • F#
    • G
    • Ab
  • Adicionar à lista

    0 comentários

    Ver todos os comentários

    Conseguiu tocar?

    0 Tocaram 0 Ainda não

    Grave um vídeo tocando Aprendendo A Dirigir e nos envie!

    00:00 / 00:00
    outros vídeos desta música
    repetir qualidade Automático
    Outros vídeos desta música
    00:00 / 00:00
    Automático

    Cifra Club Pro

    Aproveite o Cifra Club com benefícios exclusivos e sem anúncios
    Cifra Club Pro
    Aproveite o Cifra Club com benefícios exclusivos e sem anúncios
    OK