Cifra Club

Aprenda

Autonomia

Dead Fish

Cifra: Principal (violão e guitarra)
tom: D
(intro) D5 B5 C5 F#5 G#5 A5 F#5

E|--------------------------------|
B|--------------------------------|
G|--------------------------------|
D|--4-4-4-2--4-4-4-2-4-5-4-4-2-2--| x8
A|--------------------------------|
E|--------------------------------|

E|--------------------------------|
B|--------------------------------|
G|--6-6-6-4--6-6-6-4-6-7-6-6-4-4--| x4
D|--------------------------------|
A|--------------------------------|
E|--------------------------------|

(D5 B5 C5 F#5 G#5 A5 F#5)
Disse que daqui pra frente seguiria só
Não se prenderia a nada buscando algo melhor
Na esperança de conseguir não se engane
Hora de virar as costas e seguir...

(F5 A5 F#5)
Um dia ia acontecer
Sem deuses, sem mestres e sem mãos que aparem
Orgulhoso em ver, daqui pra frente só você

(refrão)
C#5                                                    A5
Ouça a música e dance como um louco buscando por autonomia
           F#5
deixe seu coração bater
C#5                                                  A5
não sinta vergonha feche os olhos agora guie sem as mãos
          F#5
deixe seu coração bater

( D5 B5 C5 F#5 G#5 A5 F#5 )

(D5 B5 C5 F#5 G#5 A5 F#5)
Completou: "aquele não era mais o caminho"
Estar na comunidade era morrer
Teve coragem de dizer "isso não me diz nada mais"
Preferiu enfrentar todas as acusações

(F5 A5 F#5)
E tatear no escuro
Honestidade pra manter o sangue quente
Orgulhoso em ver, daqui pra frente só você

C#5                                                    A5
Ouça a música e dance como um louco buscando por autonomia
           F#5
Deixe seu coração bater
C#5                                                  A5
Não sinta vergonha feche os olhos agora guie sem as mãos
          F#5
deixe seu coração bater

D5        C#5                 D5        B5
           Nem errado, nem certo
              D5      A#5
Nem bem, nem mal
               D5
Nem rico, nem pobre
     A5            F#5
Vencedor ou perdedor
              A5      B5
Humilde ou soberbo
F#5                          A5         B5
  Apenas trilhando algo que é só seu
F#5                          A5         B5
  Dentro e fora de moldes
F#5                    A5      B5
  Criando outros clichês

C#5                                                     A5
Ouça a música e dance como um louco buscando por autonomia
           F#5
Deixe seu coração bater
C#5                                                   A5
Não sinta vergonha feche os olhos agora guie sem as mãos
          F#5
deixe seu coração bater

C#5                     A5  F#5
  Por liberdade e mais ação
           A5 F#5 A5 F#5 A5 F#5
Deixe seu coração bater
C#5                             A5  F#5
  Por mais um sonho, outra mentira
           A5 F#5 A5 F#5 A5 F#5
Deixe seu coração bater

(guitarra 2 - oitavada)
E|-------------------------------------------------------------------------------------------|
B|-------------------------------------------------------------------------------------------|
G|--6-6-6-6-6--9-9-9-9-9--11-11-11-11-11--14-14-14-14-14--9-9-9-9-9--6-6-6-6-6--9-6-9-6-9-6--|
D|--x-x-x-x-x--x-x-x-x-x--x--x--x--x--x---x--x--x--x--x---x-x-x-x-x--x-x-x-x-x--x-x-x-x-x-x--|
A|--4-4-4-4-4--7-7-7-7-7--9--9--9--9--9---12-12-12-12-12--7-7-7-7-7--4-4-4-4-4--7-4-7-4-7-4--|
D|-------------------------------------------------------------------------------------------|
Colaboração e revisão:
  • Felipe Araujo
  • Alex Ramos
14.443 exibições
    • ½ Tom
    • A
    • Bb
    • B
    • C
    • Db
    • D
    • Eb
    • E
    • F
    • F#
    • G
    • Ab
  • Adicionar à lista

    0 comentários

    Ver todos os comentários

    Conseguiu tocar?

    0 Tocaram 0 Ainda não

    Grave um vídeo tocando Autonomia e nos envie!

    00:00 / 00:00
    outros vídeos desta música
    repetir qualidade Automático
    Outros vídeos desta música
    00:00 / 00:00
    Automático

    Cifra Club Pro

    Aproveite o Cifra Club com benefícios exclusivos e sem anúncios
    Cifra Club Pro
    Aproveite o Cifra Club com benefícios exclusivos e sem anúncios
    OK