Cifra Club

Aprenda

Contra Todos

Dead Fish

Cifra: Principal (violão e guitarra)
Tom: G#
(intro)

E |----------------------------------------------------------
B |----------------------------------------------------------
G |--4-4-4-4-4-4-6/8-8-8-8/11-11-11-9/8-8-8-8-8-8-8-8-8/9/8--
D |--6-6-6-6-6-6-6/6-6-6-6/9--9--9--9/-6-6-6-6-6-6-6-6------- (1x)
A |----------------------------------------------------------
E |----------------------------------------------------------

|------------------------------------------------------ 6-----6----
B |-----------------------------------------------------------------
G |--4-4-4-4-4-4-6/8-8-8-8/11-11-11-9/8-8-8-8-8-8-8-8-8-8--8-8---8-- (1x)
D |--6-6-6-6-6-6-6/6-6-6-6/9--9--9--9-/6-6-6-6-6-6-6-6--------------
A |-----------------------------------------------------------------
E |-----------------------------------------------------------------

(G#5 B5 F#5 D#5 E5 F#5)
Nas armadilhas da cidade que nos causa repulsa
Nosso horizonte podia ser mais azul
Mas você fica tão bem sob esses tons de cinza
E seus olhos verdes sempre me refletem algo bom

(E5 D#5 G#5 A#5 B5 C#5)
Isso é uma guerra e nós sabemos: somos criados no meio disso
(E5 D#5 G#5)
E no fim das contas ia piorar
(E5 D#5 G#5 A#5 B5 C#5)
Posso ver que está cansado, entendo seu mau humor
(E5 D#5 G#5)
Espero que não desista

(G#5 F#5 E5)
Baby, você pode o que quiser, a vida é tua
(D#5 B5)
E eu sei podia ser melhor
(G#5 B5 F#5 G#5)
Somos nós contra todos: vamos vencer!
Somos nós contra todos: vamos vencer!

E5 D#5 G#5 A#5 B5 C#5)
Eu sei, são muitos ladrões, banqueiros, mendigos e nóias
Viver no meio do que sobra disso aqui não é tão bom
Mesmo eles chamando de Manhattan o que sabemos ser
A Bombain glamurosa

(G#5 F#5 E5)
Baby, vc pode o que quiser, a vida é tua
(D#5 B5)
E eu sei podia ser melhor
(G#5 B5 F#5 G#5)
Somos nós contra todos: vamos vencer!
Somos nós contra todos: Vamos vencer!
Somos parte do jogo: sem perceber!
Somos nós contra todos: eu e você
Contra todos
Contra todos

(tocar a intro)
Somos nós... Somos nós... Somos nós... Somos nós...
Somos nós... Somos nós... Somos nós... Somos nós...
Somos nós contra todos!
Composição de Rodrigo
Colaboração e revisão:
  • Dilson Cassaro
  • Gustavo Espiguiridiberto
21.706 exibições
    • ½ Tom
    • A
    • Bb
    • B
    • C
    • Db
    • D
    • Eb
    • E
    • F
    • F#
    • G
    • Ab
  • Adicionar à lista

    0 comentários

    Mostrar mais comentários

    Conseguiu tocar?

    2 Tocaram 0 Ainda não

    Grave um vídeo tocando Contra Todos e mande pra gente!

    00:00 / 00:00
    outros vídeos desta música
    repetir qualidade Automático
    Outros vídeos desta música
    00:00 / 00:00
    Automático

    Cifra Club Pro

    Aproveite o Cifra Club com benefícios exclusivos e sem anúncios
    Cifra Club Pro
    Aproveite o Cifra Club com benefícios exclusivos e sem anúncios
    OK