Cifra Club

Aprenda

Didático

Dead Fish

Cifra: Principal (violão e guitarra)
Tom: F
Intro (C Bb G#)

e|----------------------------------------------------
B|----------------------------------------------------
G|-5/---8-8-8-8-8--7-7-7-7-7---3-3-3-3-3-3-3-3-3-3----
D|------x-x-x-x-x--x-x-x-x-x---3-3-3-3-3-3-3-3-3-3----
A|-3/---6-6-6-6-6--5-5-5-5-5---1-1-1-1-1-1-1-1-1-1----
E|----------------------------------------------------

e|----------------------------------------------------
B|---------------------------------------------------- 
G|-8-8-8-8-8/12-12-12-12-10-5-5-5-5-5-5-5-5-5-5-------
D|-x-x-x-x-x/x--x--x--x--x--x-x-x-x-x-x-x-x-x-x-------
A|-6-6-6-6-6/10-10-10-10-8--3-3-3-3-3-3-3-3-3-3-------
E|----------------------------------------------------

e|----------------------------------------------------
B|------11-8-------8~-|-------11-8--------------------
G|3/8-8------10-10----|-3/8-8------10-10-8~-----------
D|----------------------------------------------------
A|----------------------------------------------------
E|----------------------------------------------------
   
  (abafado)  
e|----------------------------------------------------
B|----------------------------------------------------
G|-5-5-5-5-5-5-5-5------------------------------------
D|-5-5-5-5-5-5-5-5------------------------------------
A|-3-3-3-3-3-3-3-3------------------------------------
E|----------------------------------------------------

C                 Bb          G 
 Alguem precisa dizer, todos devem se calar
C                     Bb       G   
 Eles daram novas respostas, e onde encontrar
C                      Bb         G
 A preços baixos juros altos sem saldo devedor
C                    Bb        G              G#  
 Não a quase nem um risco aproveite a cotação

Refrão (Riff2)

C      A#            G#      
 É tão simples de didático
C       A#          G#   
 Perca menos ganhe mais
C       A#        G#
 O seu jogo democrático
          G   G#        
 O que a maioria quer

(C Bb G#) 2x  (Riff3)
 Esta bem perto
 Miséria vai nos redimir

Solo (C Bb G#)

e|----------------------------------------------------
B|------11-8-------8~-|-------11-8--------------------
G|3/8-8------10-10----|-3/8-8------10-10-8~-----------
D|----------------------------------------------------
A|----------------------------------------------------
E|----------------------------------------------------
   
  (abafado)  
e|----------------------------------------------------
B|----------------------------------------------------
G|-5-5-5-5-5-5-5-5------------------------------------
D|-5-5-5-5-5-5-5-5------------------------------------
A|-3-3-3-3-3-3-3-3------------------------------------
E|----------------------------------------------------

C                    Bb             G
 Você precisa acreditar, pois eles sabem que é melhor
C                        Bb           G
 Aperte o sinto eles disseram, todos devem cooperar
C                    Bb     C                Bb            G G#
 Novas taxas velhos hábitos,  baixo estima e pouca informação

Refrão (Riff2)

C      A#            G#      
 É tão simples de didático
C       A#          G#  
 Perca menos ganhe mais
C       A#        G#
 O seu jogo democrático
          G   G#        
 O que a maioria quer

   G#     C    Bb   G#            C      Bb
   Todos vão acreditar, quem não vai poder jogar
   G#      C      Bb    G#          G
   Quantos bancos vão lucrar, vão lucrar

Ponte ( G# C G# C G# C G# F )2x
      (C G G# F)4x

G#        Bb         C             Bb     G#
 Será na proxima eleição, não pare não exite
G#     Bb         C  Bb  G#
 Não existe outra so-lu-ção

(só uma guitarra)
 C      Bb            G#
 Você é só mais uma peça
         C   Bb G#
 Subestimado,    
           C   Bb G# 
   Amedrontado
           C Bb   G#  G
 No seu devido lugar

(C Bb G#) 2x  (Riff3)
 Esta bem perto
 Miséria vai nos redimir

Solo

Final G#

Riff2

e|----------------------------------------------------
B|----------------------------------------------------
G|--8-8-8-8-8-8-8-8-5-12-12-12-12-12-10-10-10-10-10----- 3x
D|--x-x-x-x-x-x-x-x-x-x--x--x--x--x--x--x--x--x--x------
A|--6-6-6-6-6-6-6-6-3-10-10-10-10-10-8--8--8--8--8------
E|----------------------------------------------------

e|----------------------------------------------------------------------------------
B|----------------------------------------------------------------------------------
G|--8-8-8-8-8-8-8-8-5-12-12-12-12-12-10-10-10-10-10-8-8-8-8-8-8-8-8-7-7-7-7-7-7-7-7-               
D|--x-x-x-x-x-x-x-x-x-x-x-x-x-x-x-x-x-x-x-x-x-x-x-x-x-x-x-x-x-x-x-x-x-x-x-x-x-x-x---
A|--6-6-6-6-6-6-6-6-3-10-10-10-10-10-8--8--8--8--8--6-6-6-6-6-6-6-6-5-5-5-5-5-5-5-5-
E|----------------------------------------------------------------------------------

Riff3

e|----------------------------------------------------
B|----------------------------------------------------
G|-5/---8-8-8-8-8--7-7-7-7-7---3-3-3-3-3-3-3-3-3-3----
D|------x-x-x-x-x--x-x-x-x-x---3-3-3-3-3-3-3-3-3-3----
A|-3/---6-6-6-6-6--5-5-5-5-5---1-1-1-1-1-1-1-1-1-1----
E|----------------------------------------------------

e|----------------------------------------------------
B|---------------------------------------------------- 
G|-8-8-8-8-8/12-12-12-12-10-5-5-5-5-5-5-5-5-5-5-------
D|-x-x-x-x-x/x--x--x--x--x--x-x-x-x-x-x-x-x-x-x-------
A|-6-6-6-6-6/10-10-10-10-8--3-3-3-3-3-3-3-3-3-3-------
Composição de Dead Fish
Colaboração e revisão:
  • Johnn
  • tiago novak
23.324 exibições
    • ½ Tom
    • A
    • Bb
    • B
    • C
    • Db
    • D
    • Eb
    • E
    • F
    • F#
    • G
    • Ab
  • Adicionar à lista

    0 comentários

    Mostrar mais comentários

    Conseguiu tocar?

    0 Tocaram 0 Ainda não

    Grave um vídeo tocando Didático e mande pra gente!

    00:00 / 00:00
    outros vídeos desta música
    repetir qualidade Automático
    Outros vídeos desta música
    00:00 / 00:00
    Automático

    Cifra Club Pro

    Aproveite o Cifra Club com benefícios exclusivos e sem anúncios
    Cifra Club Pro
    Aproveite o Cifra Club com benefícios exclusivos e sem anúncios
    OK