Cifra Club

Aprenda

Escapando

Dead Fish

Cifra: Principal (violão e guitarra)
Tom: D
Intro:guitarra 1   (D-F) 2x

         guitarra 2   (D-A#-C)    (D-A-A#-C)



    (D-A-A#-C)
        
    Agora veja as suas costas 
    e não há mais nada a dizer
    não há mais olhos nos olhos
    nem uma palavra a se perder




    (D-A-A#-C)
 
    Eu sei não somos bons em diferenças
    mas pelo menos nós tentamos
    O que seria da vida de às vezes
    não pudesemos tentar
  

    (D)
    
    Coisas da vida
  
    (D)

    Que agora não mais existirão
 


   (D-A-A#-C)
   
   Palavras perdidas e portas abertas
   Mentiras não ditas, Mentiras não ditas
   Mentiras não ditas, feridas que não se vê
 

 
    guitarra 1: (D-A-A#-C)


    guitarra 2
   e|-----------------------------------------------------
   B|-----------------------------------------------------
   G|-7-7-7-7-7-9-9-9-9-9-10-10-10-10-10-12-12-12-12-12---
   D|-----------------------------------------------------
   A|-5-5-5-5-5-7-7-7-7-7-8--8--8--8--8--10-10-10-10-10---
   E|-----------------------------------------------------



  
    (D)
    
    Quem poderia dizer que sim
    ou quem ousaria dizer que não
    Somos apenas humanos 
    tentando,tentando
    tentando, mais uma vez



     guitarra 1: (D-A-A#-C)


     guitarra 2
    e|-----------------------------------------------------
    B|-----------------------------------------------------
    G|-7--7-7--7-7---7-7----7-7----7-7----7-7---7-7--------
    D|--7-----7----7-----7------7------7------7----7-------
    A|-----------------------------------------------------
    E|-----------------------------------------------------



      guitarra 1: (D-A-A#-C)


      guitarra 2
    e|----------------------------------------------------------------
    B|-8~10-8-6--6-8-8~10-8-6-8-6---6-8~10-8-6--6-8~10-8-6-8-6----6---
    G|----------7-----------------7------------7----------------7---7-
    D|----------------------------------------------------------------
    A|----------------------------------------------------------------
    E|----------------------------------------------------------------



    (D-A-A#-C)
        
    Agora veja as suas costas 
    e não há mais nada a dizer
    não há mais olhos nos olhos
    nem uma palavra a se perder


    (D-A-A#-C)

    Não fomos bons em diferenças 
    não fomos bons em nos entender
    e agora só restará a solidão

    
    (D)
    
    Agora veja as suas costas


    e|-----
    B|-----
    G|-7---
    D|--7--
    A|-----
    E|-----


    (D) 
     
    e não há mais nada a dizer
     

    final: (G-F-E-D)
Composição de Dead Fish
Colaboração e revisão:
  • João Reinaldo
8.407 exibições
    • ½ Tom
    • A
    • Bb
    • B
    • C
    • Db
    • D
    • Eb
    • E
    • F
    • F#
    • G
    • Ab
  • Adicionar à lista

    0 comentários

    Mostrar mais comentários

    Conseguiu tocar?

    1 Tocaram 0 Ainda não

    Grave um vídeo tocando Escapando e mande pra gente!

    00:00 / 00:00
    outros vídeos desta música
    repetir qualidade Automático
    Outros vídeos desta música
    00:00 / 00:00
    Automático

    Cifra Club Pro

    Aproveite o Cifra Club com benefícios exclusivos e sem anúncios
    Cifra Club Pro
    Aproveite o Cifra Club com benefícios exclusivos e sem anúncios
    OK