Cifra Club

Aprenda

Hoje

Dead Fish

Cifra: Principal (violão e guitarra)
Tom: F#
#A=Murilo #B=???

# verse #A&B X2 *=play 6X
E-----------------------------------------------|
B--------*-----------------*--------------------|
G----*--6----*---------*--6----*----------------|
D---4---6---7---9-7---4---6---7---2-3-----------|
A---4---4---7---9-7---4---4---7---2-3-----------|
E---2-------5---7-5---2-------5---0-1-----------|

# verse2 #A X2 !play all notes 6X!
E----------------------------------|
B----------------------------------|
G-------6---7---4-------6---7---9--|
D---4---6---7---4---4---6---7---9--|
A---4---4---5---2---4---4---5---7--|
E---2---------------2--------------|

# verse2 #B *=play 6X  #=play 12X
E---------------------------------------------------------|
B--------*---*---*-------*---*---*---#----------#---------|
G----*--6---7---4----*--6---7---9---6---7-6-4--6---911----|    
D---4---6---7---4---4---6---7---9-------------------------|              
A---4---4---5---2---4---4---5---7---4---5-4-2--4---7-9----|
E---2---------------2-------------------------------------|

# chorus !play all notes 12X!
E------------|
B-----X4-----|
G------------|     Repeat all
D---4---2----|
A---4---2----|
E---2---0----|

# bridge #A m=palm-mutting
E---/-------X2-------\--/------X4-------\------|
B-------mmmm-----------------------------------|
G---mmm-6666-mmmmmmmm-------6666---------------|
D---444-6666-22222222---444-6666-22222222------|
A---444-4444-22222222---444-4444-22222222------|
E---222------00000000---222------00000000------|

# bridge #B 
E-----------------------------------/------X4------\------|
B---2-----------------2--2-232------2--2--2-2--2-233------|
G----22----------------22-2----------22-22-2-22-2---------| then play verse2
D---------------------------------------------------------|
A---------------------------------------------------------|
E---------------------------------------------------------|

# end #A&B
E-----------|
B-----------|
G-----------|
D---4---4---|
A---4---4---|
E---2---2---|


Essa bridge #B é meio estranha, se não entender invente...eu inventei
Composição de Dead Fish
Colaboração e revisão:
  • Ian Matos
16.617 exibições
    • ½ Tom
    • A
    • Bb
    • B
    • C
    • Db
    • D
    • Eb
    • E
    • F
    • F#
    • G
    • Ab
  • Adicionar à lista

    0 comentários

    Mostrar mais comentários

    Conseguiu tocar?

    1 Tocaram 0 Ainda não

    Grave um vídeo tocando Hoje e mande pra gente!

    00:00 / 00:00
    outros vídeos desta música
    repetir qualidade Automático
    Outros vídeos desta música
    00:00 / 00:00
    Automático

    Cifra Club Pro

    Aproveite o Cifra Club com benefícios exclusivos e sem anúncios
    Cifra Club Pro
    Aproveite o Cifra Club com benefícios exclusivos e sem anúncios
    OK