Cifra Club

Aprenda

Iceberg

Dead Fish

Cifra: Principal (violão e guitarra)
Tom: C
A=Murilo  B=Philippe  

# intro #A  X4    *=play 4x    #=play 6x
E-----------------------------------------|
B-------------#---------------------------|
G---*---8---12----------------------------|
D--5--------------------------------------|
A--5----6---10----------------------------|
E--3--------------------------------------|

# intro #B  *=play 6x
E-----------------------------------------|
B--------*---------*---------*---------*--|
G---*---8-----*---8-----*---8-----*---8---|
D--5----8----5----8----5----8----5----8---|
A--5----6----5----6----5----6----5----6---|
E--3---------3---------3---------3--------|

# end-intro #A
E-----------------------------------------|
B-----------------------------------------|
G-----------------------------------------|
D--5--5-3-5--5-3-5--5-3-5-----------------|
A--5--5-3-5--5-3-5--5-3-5-----------------|
E--3--3-1/3--3-1/3--3-1/3-----------------|

# end-intro #B
E-----------------------------------------|
B-----------------------------------------|
G-----------------------------------------|
D--5------5------5--------5---------------|
A--5------5------5--------5---------------|
E--3------3------3----12/-3---------------|

# verse #A X2 *=play 6x #=play 3x **=play 3x with some palm-muting
E------6------------------6----------------------|
B------6--------#---#-----6----**------**--**----|
G---*--5----*--8--10---*--5---3----**-8---7------|
D--5----*--5---8--10--5----*--3---3--------------|
A--5-------5---6---8--5-------1---3---6---5------|
E--3-------3----------3-----------1--------------|

# verse #B X2 
E-------------------------------------------------|
B-------*-------#-----------*---**------**--------|
G---*--8----*--8----#---*--8---3----**-3----**----|
D--5---8---5---8---3---5---8---3---3---3---3------|
A--5---6---5---6---3---5---6---1---3---1---3------|
E--3-------3-------1---3-----------1-------1------|

# chorus #A X2  *=play 6x
E-----------------------------------------|
B-------*---*-----------*---*-------------|
G---*--7---8----*---*--7---8--------------|
D--5---7---8---8---5---7---8---8-8-8-8-7--|
A--5---5---6---8---5---5---6---8-8-8-8-7--|
E--3-----------6---3-----------6-6-6-6-5--|

# chorus #B X2 <<<=pick-slide second time
E-------------/5-------5---7--------------|
B-------*---*---6-------6-----------------|
G---*--7---8-----7----7---7---------------|
D--5---7---8-------------------------8-7--|
A--5---5---6--------------------<<<--8-7--|
E--3----------------------------<<<--6-5--|

then play A&B intro

# verse2 #A   *=play 3x with some palm-muting
E-/----(palm-muting)---------------------------|
B----------------------------*-------*----------|
G------8-------8-------8----3----*--8----*------|
D--5---8---5---8---5---8----3---3-------3-------|
A--5---6---5---6---5---6----1---3---6---3-------|
E--3-------3-------3------------1-------1-------|

# verse2 #B  *=play 3x  #=play 6x
E-(palm-muting)---|-------------------------|
B-----------------|----*--*---*--*--*--*--#-|
G------8-------8--|--12-10--12-10--8-10--7--|
D--5---8---5---8--|-------------------------|
A--5---6---5---6--|--10--8--10--8--6--8--5--|
E--3-------3------|-------------------------|

then play A&B verse and chorus

# bridge #A X5  m=palm-muting  M=hard palm-muting
E---------------------------------------------------------|
B---------------------MMMM-----------------------MMMM-----|
G-----mm----mmmm---8--8888-8-----mm----mmmm---8--888810---|
D--5--55-5--5555--------------5--55-5--5555---------------|
A--5--55-5--5555---6--6666-6--5--55-5--5555---6--6666-8---|
E--3--33-3--3333--------------3--33-3--3333---------------|

# bridge #B
E---------------------------------------------------------|
B---------------------------------------------------------|
G---------------------------------------------------------|
D--5--------------------------5---------------------------|
A--5--------------------------5---------------------------|
E--3--------------------------3---------------------------|

# bridge2 #B X16
E-----------------------------------------|
B-----------------------------------------|
G-----mm----mmmm-----mm-------------------|
D--5--55-5--5555--5--55-5-----------------|
A--5--55-5--5555--5--55-5-----------------|
E--3--33-3--3333--3--33-3-----------------|

# bridge2 #A   *=play 16x
E-----------------------------------------|
B---*----*--*----*------------------------|
G--7--8-7--7--8-7-------------------------|
D-----------------------------------------|
A--5--6-5--5--6-5-------------------------|
E-----------------------------------------|

# bridge3 #A  *=play ??x
E-(------FAST!!!------)-------------------|
B----*-----*-----*-----*------------------|
G--12----12----12----12-------------------|
D-----------------------------------------|
A--10----10----10----10-------------------|
E-----------------------------------------|

then play bridge1 #B X2

# end-part #A X2
E---15---------15-------------------------|
B-----15----------------------------------|
G-------------------14--------------------|
D-----------------------------------------|
A-----------------------------------------|
E-----------------------------------------|

# end-part #A&B  
E---15---------15-------|--15-------1515------15------1515---------|
B-----15----------------|----15---------15------15--------15-------|
G-------------------14--|--------------------------------------14--|
D-----------------------|------------------------------------------|
A--------(X2)-----------|------------------------------------------|
E-----------------------|------------------------------------------|

Ter olhos e não ver...
Composição de Dead Fish
Colaboração e revisão:
  • lorena
15.697 exibições
    • ½ Tom
    • A
    • Bb
    • B
    • C
    • Db
    • D
    • Eb
    • E
    • F
    • F#
    • G
    • Ab
  • Adicionar à lista

    0 comentários

    Mostrar mais comentários

    Conseguiu tocar?

    1 Tocaram 0 Ainda não

    Grave um vídeo tocando Iceberg e mande pra gente!

    00:00 / 00:00
    outros vídeos desta música
    repetir qualidade Automático
    Outros vídeos desta música
    00:00 / 00:00
    Automático

    Cifra Club Pro

    Aproveite o Cifra Club com benefícios exclusivos e sem anúncios
    Cifra Club Pro
    Aproveite o Cifra Club com benefícios exclusivos e sem anúncios
    OK