Cifra Club

Aprenda

Janelas

Dead Fish

Cifra: Principal (violão e guitarra)
Tom: Bb (forma dos acordes no tom de B) Afinação: Eb Ab Db Gb Bb Eb
[Intro e Verso]

  B5          C5          B5          C5
E|-----------------------------------------------------|
B|-----------------------------------------------------|
G|------------5-5-5-5-----------------5-------5-5-5----|
D|------------5-5-5-5-----------------5-------5-5-5----|
A|-2--2-2-2---3-3-3-3-----2--2-2-2----3-3-3-3-3-3-3----|
E|-----------------------------------------------------|

[Verso]

Janelas abertas
Mentes fechadas
Cortinas bonitas
Ideias erradas
A luz que não penetra a escuridão
Escolhas que restringem a visão

   D5
E|--------------------------------------|
B|--------------------------------------|
G|-11-11-11-11------14-14-14-14---------|
D|-x--x--x--x-------xx-xx-xx-xx---------|
A|-9--9--9--9-------12-12-12-12---------|
E|--------------------------------------|

D5
Panorama limitado

  B5          C5          B5          C5
E|-----------------------------------------------------|
B|-----------------------------------------------------|
G|------------5-5-5-5-----------------5-------5-5-5----|
D|------------5-5-5-5-----------------5-------5-5-5----|
A|-2--2-2-2---3-3-3-3-----2--2-2-2----3-3-3-3-3-3-3----|
E|-----------------------------------------------------|

Uma depravada
Especulação
O preço é alto
Ganância ambição
A água que chega para destruir
Encharca as plantas que não tem raiz

[Pré-Refrão]

   D5        E5 B5
E|----------------------------------|
B|----------------------------------|
G|-7-x-x-7-7/9----------------------|
D|-7-x-x-7-7/9--9-9-9-9-------------|
A|-5-5-5-5-5/7--9-9-9-9-------------|
E|--------------7-7-7-7-------------|

Receitas fabricadas
Pra esclarecer
Humanos sem olfato e sem cor

[Refrão]

E|---------------------------------------------|
B|---------------------------------------------|
G|-11-11-11-11-11--12-12-12-12-----4-4-4-4-4---|
D|-x--x--x--x--x---x--x--x--x------4-4-4-4-4---|
A|-9--9--9--9--9---10-10-10-10-----2-2-2-2-2---|
E|---------------------------------------------|

Se um dia a luz entrar
E revelar os erros dessa existência
Mostrando sombras
O que é real
E não se pode esconder

[Verso]

  B5          C5          B5          C5
E|-----------------------------------------------------|
B|-----------------------------------------------------|
G|------------5-5-5-5-----------------5-------5-5-5----|
D|------------5-5-5-5-----------------5-------5-5-5----|
A|-2--2-2-2---3-3-3-3-----2--2-2-2----3-3-3-3-3-3-3----|
E|-----------------------------------------------------|

Uma vida mensal
Entre quinas e contas
Nas paredes seguras
Dessa não-relação
No ponto cego é fácil disfarçar
O cheiro podre de todo andar

[Refrão]

E|-----------------------------------------|
B|-----------------------------------------|
G|-11-11-11-11-11-11--12-12-12-12-12-12----|
D|-9--9--9--9--9--9---9--9--9--9--9--9-----|
A|-----------------------------------------|
E|-----------------------------------------|
                                             
E|-----------------------------------------|
B|-----------------------------------------|
G|-11-11-11-11-11-11--9-9-9-9-9-9-9-9------|
D|-9--9--9--9--9--9---9-9-9-9-9-9-9-9------|
A|-----------------------------------------|
E|-----------------------------------------|

Se um dia o Sol entrar
E não aquecer
Só a noite vai morar
Dentro deste ser

[Final]

  B5          C5          
E|-----------------------------------|
B|-----------------------------------|
G|------------5-x-x-5-x-x-5-5--------|
D|------------5-x-x-5-x-x-5-5--------|
A|-2--2-2-2---3-x-x-3-x-x-3-3--------|
E|-----------------------------------|
Composição de Marcão Melloni / Ric Mastria / Rodrigo Lima
Colaboração e revisão:
  • Renan Luiz
48 exibições
    • ½ Tom
    • A
    • Bb
    • B
    • C
    • Db
    • D
    • Eb
    • E
    • F
    • F#
    • G
    • Ab
  • Adicionar à lista

    0 comentários

    Mostrar mais comentários

    Conseguiu tocar?

    1 Tocaram 0 Ainda não

    Grave um vídeo tocando Janelas e mande pra gente!

    00:00 / 00:00
    outros vídeos desta música
    repetir qualidade Automático
    Outros vídeos desta música
    00:00 / 00:00
    Automático

    Cifra Club Pro

    Aproveite o Cifra Club com benefícios exclusivos e sem anúncios
    Cifra Club Pro
    Aproveite o Cifra Club com benefícios exclusivos e sem anúncios
    OK