Cifra Club

Aprenda

Kryptonita

Dead Fish

Cifra: Principal (violão e guitarra)
Já pensou em usar uma coleção de roupas do Cifra Club? Responda as perguntas abaixo e nos ajude nessa missão! →
tom: Db (forma dos acordes no tom de D) Afinação: Eb Ab Db Gb Bb Eb
[Intro] B5  Gb5  A5  E5

E|---------------------------------|----7---------------4~~~~~~--|
B|-----7----------------10~~~~-----|---------10-----------3~~~~--|
G|---------9---7---9s11----11~~----|-10---10----10s4--4-----4~~--|
D|-7s9---9---9---9-----------------|-----------------------------|
A|---------------------------------|-----------------------------|
E|---------------------------------|-----------------------------|

E|----------------------9~~~~------|----7---------------4~~~~~~--|
B|-----7------------------10~~~~---|---------10-----------3~~~~--|
G|---------9---7---9s11------------|-10---10----10s4--4-----4~~--|
D|-7s9---9---9---9-----------------|-----------------------------|
A|---------------------------------|-----------------------------|
E|---------------------------------|-----------------------------|

E|---------------------------------|-----------------------------|
B|---------------------------------|-----------------------------|
G|-4-4---4-4---4-4---4-4---4-4-----|-11-11--9-9--7-7--6-6--6s7s6-|
D|-x-x---x-x---x-x---x-x---x-x-----|-x--x---x-x--x-x--x-x--x-----|
A|-2-2---2-2---2-2---2-2---2-2-----|-9--9---9-9--9-9--9-9--9-----|
E|---------------------------------|-----------------------------|

[Primeira Parte]

B5                                           G5         E5
   O super-homem cai do céu feito uma pedra,      Kryptonita!
B5                                                G5         
   Do buraco Belfagor volta pro inferno destruído

E|----------------------------------------------------|
B|----------------------------------------------------|
G|------9/11/9----------------------------------------|
D|------x-x--x-----------------4s5s4------------------|
A|------7/9/7--------------2-5-------5-2-0-2----------|
E|-----------------------3----------------------------|

E5
   Apavorado mas não explica

E|---------------------|-------------------------------------|
B|---------------------|-------------------------------------|
G|-4-4-4-4-4-4-4-4-4-4-|-16-16-16-16-16-16----7-7-7-7-7-7s9--|
D|-x-x-x-x-x-x-x-x-x-x-|-xx-xx-xx-xx-xx-xx----x-x-x-x-x-x-x--|
A|-2-2-2-2-2-2-2-2-2-2-|-14-14-14-14-14-14----5-5-5-5-5-5s7--|
E|---------------------|-------------------------------------|

[Segunda Parte]

Minha vida meus termos
Outro Estado que não funcionou

E|---------------------|---------------|
B|---------------------|---------------|
G|-4-4-4-4-4-4-4-4-4-4-|--7-7-7-7-7-7--|
D|-x-x-x-x-x-x-x-x-x-x-|--x-x-x-x-x-x--|
A|-2-2-2-2-2-2-2-2-2-2-|--5-5-5-5-5-5--|
E|---------------------|---------------|

                      A5
República rocha destruída por um sopro só

( B5  Gb5  A5  E5 )

E|------------------------------|----7---------------4~~~~~~-----|
B|-----7----------------10~~~~--|---------10-----------3~~~~-----|
G|---------9---7---9s11----11~~-|-10---10----10s4--4-----4~~-----|
D|-7s9---9---9---9--------------|--------------------------------|
A|------------------------------|--------------------------------|
E|------------------------------|--------------------------------|

E|----------------------9~~~~---|----7---------------4~~~~~~-----|
B|-----7------------------10~~~~|---------10-----------3~~~~-----|
G|---------9---7---9s11---------|-10---10----10s4--4-----4~~-----|
D|-7s9---9---9---9--------------|----------------------------2-4-|
A|------------------------------|----------------------------0-2-|
E|------------------------------|--------------------------------|

[Primeira Parte]

B5
    Rickson Francis poderoso, violentamente se expondo
G5  E5
    A direita tinha razão
B5
    Bozo Reagan mostra os dentes da vingança

E|----------------------------------------------------|
B|----------------------------------------------------|
G|------9/11/9----------------------------------------|
D|------x-x--x-----------------4s5s4------------------|
A|------7/9/7--------------2-5-------5-2-0-2----------|
E|-----------------------3----------------------------|

G5  E5
    Bate a porta e se sente mal

E|---------------------|-------------------------------------|
B|---------------------|-------------------------------------|
G|-4-4-4-4-4-4-4-4-4-4-|-16-16-16-16-16-16----7-7-7-7-7-7s9--|
D|-x-x-x-x-x-x-x-x-x-x-|-xx-xx-xx-xx-xx-xx----x-x-x-x-x-x-x--|
A|-2-2-2-2-2-2-2-2-2-2-|-14-14-14-14-14-14----5-5-5-5-5-5s7--|
E|---------------------|-------------------------------------|

[Parte 02]

Minha vida, meu erros
Todas as regras pisadas ao chão

E|---------------------|---------------|
B|---------------------|---------------|
G|-4-4-4-4-4-4-4-4-4-4-|--7-7-7-7-7-7--|
D|-x-x-x-x-x-x-x-x-x-x-|--x-x-x-x-x-x--|
A|-2-2-2-2-2-2-2-2-2-2-|--5-5-5-5-5-5--|
E|---------------------|---------------|

                              A5
Contrato rasgado, instinto saciado
Frustração!

[Terceira Parte]

   G5  A5            G5  A5            G5  A5          E5
E|------------------------------------------------------------|
B|------------------------------------------------------------|
G|------------------------------------------------------------|
D|------------------------------------------------------------| 2x
A|-5-5--7--4h5p4-----5-5--7--4h5p4-----5-5--7--4h5p4----2-----|
E|-3-3--5--------5---3-3--5--------5---3-3--5--------5--0-----|

Matemática social
Coerência primitiva
O rei está nu
Punir, vigiar

[Quarta Parte]

E|--------------------------------|
B|--------------------------------|
G|-9-9-9-9-9-9-9-9-9-9-9-9-9-9-9--|
D|-x-x-x-x-x-x-x-x-x-x-x-x-x-x-x--|
A|-7-7-7-7-7-7-7-7-7-7-7-7-7-7-7--|
E|--------------------------------|

Dia 02 eu morro e cerro os dentes

E|--------------------|-------------------|
B|--------------------|-------------------|
G|-14-14-14--13-13-13-|-14-14-13-11-11-11-|
D|-xx-xx-xx--xx-xx-xx-|-xx-xx-xx-x--x--x--| 3x
A|-12-12-12--11-11-11-|-12-12-11-9--9--9--|
E|--------------------|-------------------|

Dia 03 a ficha cai, tudo que poderia
Dia 05 imploro, suplico:

E|--------------------------------------------|
B|--------------------------------------------|
G|-14-14--9-11-11----6s7-7-7---6s7s6--2-4-----|
D|-xx-xx--x-x--x-----x-x-x-x---x-x-x--2-4-----|
A|-12-12--7-9--9-----4s5-5-5---4s5s4--0-2-----|
E|--------------------------------------------|

Tente me perdoar!

( B5  Gb5  A5  E5 )
( B5  Gb5  A5  E5 )

Kryptonita, Kryptonita

[Final]

E|------------------------------|----7---------------4~~~~~~-----|
B|-----7----------------10~~~~--|---------10-----------3~~~~-----|
G|---------9---7---9s11----11~~-|-10---10----10s4--4-----4~~-----|
D|-7s9---9---9---9--------------|--------------------------------|
A|------------------------------|--------------------------------|
E|------------------------------|--------------------------------|

E|----------------------9~~~~---|----7---------------4~~~~~~-----|
B|-----7------------------10~~~~|---------10-----------3~~~~-----|
G|---------9---7---9s11---------|-10---10----10s4--4-----4~~-----|
D|-7s9---9---9---9--------------|--------------------------------|
A|------------------------------|--------------------------------|
E|------------------------------|--------------------------------|

Haverá quem nunca vai entender
Haverá quem não vá perdoar
Que se cumpra a pena
A falta capital

E|---------------------------------------------------------------|
B|---------------------------------------------------------------|
G|-4-4-4-4-4--7--11-11-11--9-9-9---14-14-14--11-9-9-9-9--9/11/9--|
D|-x-x-x-x-x--x--x--x--x---x-x-x---xx-xx-xx--x--x-x-x-x--x-x--x--|
A|-2-2-2-2-2--5--9--9--9---7-7-7---12-12-12--9--7-7-7-7--7/9/7--|
E|---------------------------------------------------------------|

E|---------------------------------------------------------------|
B|---------------------------------------------------------------|
G|-4-4-4-4-4--7--11-11-11--9-9-11--14-14-14--11-9-9-9--9/11/9/7--|
D|-x-x-x-x-x--x--x--x--x---x-x-x---xx-xx-xx--x--x-x-x--x-x-x-x---|
A|-2-2-2-2-2--5--9--9--9---7-7-9---12-12-12--9--7-7-7--7/9/7/5---|
E|---------------------------------------------------------------|

Pena de morte pro resto da vida
Pena de vida numa cultura falida

[Final] B5 B5  B5 B5
Composição de Dead Fish
Colaboração e revisão:
  • Renan Luiz
1 exibições
    • ½ Tom
    • A
    • Bb
    • B
    • C
    • Db
    • D
    • Eb
    • E
    • F
    • F#
    • G
    • Ab
  • Adicionar à lista

    0 comentários

    Ver todos os comentários

    Conseguiu tocar?

    0 Tocaram 0 Ainda não

    Grave um vídeo tocando Kryptonita e nos envie!

    00:00 / 00:00
    Outros vídeos desta música
    Repetir Qualidade Automático
    Outros vídeos desta música
    00:00 / 00:00
    Automático

    Cifra Club Pro

    Aproveite o Cifra Club com benefícios exclusivos e sem anúncios
    Cifra Club Pro
    Aproveite o Cifra Club com benefícios exclusivos e sem anúncios
    OK