Cifra Club

Aprenda

Linear

Dead Fish

Cifra: Principal (violão e guitarra)
Tom: G
#A=Murilo  #=Giuliano

#intro #A  m=palm-muted
E--|----------------4----4---|----------------------|
B--|----------------4----4---|----------------------|
G--|--------99-6-mm-6-mm-6---|-----mmmmmmmmmmmmmm---|
D--|-777-44-99-6-66-6-66-6---|---4-44444444444444---|
A--|-777-44-77-4-44-4-44-4---|---4-44444444444444---|
E--|-555-22------------------|---2-22222222222222---|
   |           4x            | 

#intro #B
E--|-------------------------|----------------------|
B--|-------------------------|----------------------|
G--|--------99-6-mm-6-mm-6---|-----mmmmmmmmmmmmmm---|
D--|-777-44-99-6-66-6-66-6---|---4-44444444444444---|
A--|-777-44-77-4-44-4-44-4---|---4-44444444444444---|
E--|-555-22------------------|---2-22222222222222---|
   |           4x            |

#verse1 #A X2  *=play 12x
E--------------------------9-----|
B--------------------------9-----|
G---6-6-666-7-77-9-141414---*----|
D--------------------------------|
A---4-4-444-5-55-7-121212--------|
E--------------------------------|

#verse1 #B X2
E--------------------------------------------|
B--------------------------------------------|
G---6-66-666------4-44---mm---mmm----mm------|
D---6-66-666-2-22-4-44-6-66-6-666-77-77-77---|
A---4-44-444-2-22-2-22-6-66-6-666-77-77-77---|
E------------0-00------4-44-4-444-55-55-55---|

#verse2 #A
E---------------------------------------------------->
B---------------------------------------------------->
G---9-99-999-8-88-99-99911-1111-111111-9-99-88-9-8--->
D---------------------------------------------------->
A---7-77-777-6-66-77-777-9--9-9--9-9-9-7-77-66-7-6--->
E---------------------------------------------------->

#verse2 #B X2
E------------------------------------------|
B------------------------------------------|
G---6-66-666------4-44---------------------|
D---6-66-666-2-22-4-44----------7-77-777---|
A---4-44-444-2-22-2-22-7-77-777-7-77-777---|
E------------0-00------4-44-444-5-55-555---|

#verse2(cont...) #A
E------------------------------------------------------------|
B------------------------------------------------------------|
G---6-66-666-8-88-9-99-999-14-1414-1414-1414-1313-13131111---|
D------------------------------------------------------------|
A---4-44-444-6-66-7-77-777-12-1212-1212-1212-1111-1111-9-9---|
E------------------------------------------------------------|

then play intro #A&B, verse1 #A&B, verse2 #A&B...

#bridge #A X4
E------------------4----4---|
B------------------4----4---|
G----------mm-6-mm-6-mm-6---|
D---mmm-mm-99-6-66-6-66-6---|
A---777-44-77-4-44-4-44-4---|
E---555-22------------------|

#bridge #B X4
E---------------------------|
B---------------------------|
G----------mm-6-mm-6-mm-6---|
D---mmm-mm-99-6-66-6-66-6---|
A---777-44-77-4-44-4-44-4---|
E---555-22------------------|

#outro #A X2 *=play 3x
E-------------------------------------------------|
B--------------*--*--*--*-------------*--*--*--*--|
G----------99-6--9-11-13---------99-14-13-11--9---|
D---777-44-99-------------777-44------------------|
A---777-44-77-4--7--9-11--777-44-77-12-11--9--7---|
E---555-22----------------555-22------------------|

#outro #B X4 *=play 12x with some hard-muting
E--------------------|
B----------------*---|
G----------99-6-6----|
D---777-44-99-6-6----|
A---777-44-77-4-4----|
E---555-22-----------|


----------------------------------------


LINEAR

me dê sua mão posso te salvar! por muito tempo acreditar e ser assim...
descomunizar o senso comum, e se tornar especial... olhar no meu olho
e se perceber campeão . em nome do privado estatizarei, o estado agora
é o eu e isso inclui você. é tudo muito simples seja racional! nossa
coerência te dará uma ajuda na salvação. siga esta linha traçada no 
chão e veja luz do meu farol... a velha nova alternativa não é circular...
dois mais dois são quatro! a nova moral a flecha no seu alvo! a solução
final! linear! cante a música! reto é andar! linear! 
Composição de Dead Fish
14.457 exibições
    • ½ Tom
    • A
    • Bb
    • B
    • C
    • Db
    • D
    • Eb
    • E
    • F
    • F#
    • G
    • Ab
  • Adicionar à lista

    0 comentários

    Mostrar mais comentários

    Conseguiu tocar?

    0 Tocaram 0 Ainda não

    Grave um vídeo tocando Linear e mande pra gente!

    00:00 / 00:00
    outros vídeos desta música
    repetir qualidade Automático
    Outros vídeos desta música
    00:00 / 00:00
    Automático

    Cifra Club Pro

    Aproveite o Cifra Club com benefícios exclusivos e sem anúncios
    Cifra Club Pro
    Aproveite o Cifra Club com benefícios exclusivos e sem anúncios
    OK