Cifra Club

Aprenda

Lost Soul

Dead Fish

Cifra: Principal (violão e guitarra)
Tom: C
Intro:  C5 -B5 - G5 - D5 - F5 - A#5 - F5 - B5 - C5
        C5 -B5 - G5 - D5 - F5 - A#5 - F5 - B5 - C5
 C5 - G5 - A5 - A#5        C5 - G5 - F5 
|--------------------------------------------------|
|-------------------------------------8------------|
|------5h7-5-7~-7-5------------5h7-7~---7--5-------|  2 vezes
|-5h7---------------7-5----5h7---------------------|
|--------------------------------------------------|
|--------------------------------------------------|
  
(C5 - G5)  
Why it have to be like that
(A5 - A#5)
My world is lost and I can't find it self
(C5 - G5)
Patience is gone from me right now
(F5)
and there's no anybody else
(C5 - G5)
My soul is dead inside of me
(A5 - A#5)
and there's no other way I can be
(C5 - G5)
the tension is complete
(F5)
and I can't turn
(C5 - G5 - A5 -A#5)
I guess that my soul will burn
(C5 - G5 - F5)
I guess that my soul will run
C5 - G5 - A5 -A#5
C5 - G5 - F5
                        _
(C5 - G5)                |
My life is desperate     |
(A5 - A#5)               |
and I can't control       >     2 vezes
(C5 - G5)                |
No working by myself     |
(G5)                     |
I think I lost my soul  _|

 C5 - G5 - A5 - A#5        C5 - G5 - F5 
|--------------------------------------------------|
|-------------------------------------8------------|
|------5h7-5-7~-7-5------------5h7-7~---7--5-------|  2 vezes
|-5h7---------------7-5----5h7---------------------|
|--------------------------------------------------|
|--------------------------------------------------|

(C5 - G5)
The cofusion of a man
(A5 - A#5)
is like that be fucked up again
(C5 - G5)
when you think is all OK
(F5)
your soul is gone deep away
(C5 - G5)
All the scares in my face
(A5 - A#5)
are results of disgrace
(C5 - G5)
When I try to make a goal
(F5)
I just can't find I lost my soul.
 
Composição de Dead Fish
5.857 exibições
    • ½ Tom
    • A
    • Bb
    • B
    • C
    • Db
    • D
    • Eb
    • E
    • F
    • F#
    • G
    • Ab
  • Adicionar à lista

    0 comentários

    Mostrar mais comentários

    Conseguiu tocar?

    0 Tocaram 0 Ainda não

    Grave um vídeo tocando Lost Soul e mande pra gente!

    00:00 / 00:00
    outros vídeos desta música
    repetir qualidade Automático
    Outros vídeos desta música
    00:00 / 00:00
    Automático

    Cifra Club Pro

    Aproveite o Cifra Club com benefícios exclusivos e sem anúncios
    Cifra Club Pro
    Aproveite o Cifra Club com benefícios exclusivos e sem anúncios
    OK