Cifra Club

Aprenda

Messias

Dead Fish

Cifra: Principal (violão e guitarra)
Tom: Bb (forma dos acordes no tom de B) Afinação: Eb Ab Db Gb Bb Eb
[Introdução]

   G#5         E        G#5         E
E|------------------------------------------------------|
B|------------------------------------------------------|
G|--8--8-8-8---9--9-9---8-8-8-8-8---11/13--11---4/6/8---|
D|--x--x-x-x---x--x-x---x-x-x-x-x----x-xx---x---x-x-x---|
A|--6--6-6-6---7--7-7---6-6-6-6-6----9/11---9---2/4/6---|
E|------------------------------------------------------|

   G#5         E        G#5         E
E|------------------------------------------------------|
B|------------------------------------------------------|
G|--8--8-8-8---9--9-9---8-8-8-8-8---11/13--11---4/6-----|
D|--x--x-x-x---x--x-x---x-x-x-x-x----x-xx---x---x-x-----|
A|--6--6-6-6---7--7-7---6-6-6-6-6----9/11---9---2/4-----|
E|------------------------------------------------------|

[Verso 1]

G#5                            E
Bom dia, grupo! Olha a notícia
G#5               F#
Sentimental e alarmista
G#5                     E
Que desperta indignação
G#5              F#
E aponta um inimigo
G#5                           E
Bom dia, grupo! Olha a notícia
G#5                F#
Gráficos e estatísticas
G#5                       E
Condizentes com a intuição
G#5
O inimigo é culpado

E|---------------------|
B|---------------------|
G|-11/13--11---4/6/8---|
D|--x-xx---x---x-x-x---|
A|--9/11---9---2/4/6---|
E|---------------------|

[Refrão]

   G#5         E        G#5         E
E|------------------------------------------------------|
B|-------------9-9--------------------------------------|
G|-------------x-x--8---------------11/13--11---4/6/8---|
D|--6--6-6-6---6-6--x----6--6-6-6----x-xx---x---x-x-x---|
A|--6--6-6-6--------6----6--6-6-6----9/11---9---2/4/6---|
E|--4--4-4-4-------------4--4-4-4-----------------------|

   G#5         E        G#5         E
E|------------------------------------------------------|
B|-------------9-9--------------------------------------|
G|-------------x-x--8---------------11/13--11---4/6-----|
D|--6--6-6-6---6-6--x----6--6-6-6----x-xx---x---x-x-----|
A|--6--6-6-6--------6----6--6-6-6----9/11---9---2/4-----|
E|--4--4-4-4-------------4--4-4-4-----------------------|

G#5        E
Em meio à crise
G#5     E         G#5         
Sacramentado salvador
E             G#5     E
Se quer acreditar

[Verso 2]

G#5              E
Unidos pelo ódio
G#5           F#
A um mesmo inimigo
G#5                 E
Que belo sentimento
G#5                F#
Fazer parte da tribo
G#5                        E
Preste atenção ao demagogo
G#5                    F#
Há trinta anos nesse jogo
G#5                   E
Ele agora é a salvação
G#5         
Ele agora é a salvação

E|--------------------------|
B|--------------------------|
G|--------------------------|
D|--------------------------|
A|-4-4--4-4-4-5-5-5-4-2h4---|
E|--------------------------|

Sem diálogo, nem projetos
Dando graças ao ódio e ao medo

[Refrão]

   G#5         E        G#5         E
E|------------------------------------------------------|
B|-------------9-9--------------------------------------|
G|-------------x-x--8---------------11/13--11---4/6/8---|
D|--6--6-6-6---6-6--x----6--6-6-6----x-xx---x---x-x-x---|
A|--6--6-6-6--------6----6--6-6-6----9/11---9---2/4/6---|
E|--4--4-4-4-------------4--4-4-4-----------------------|

   G#5         E        G#5         E
E|------------------------------------------------------|
B|-------------9-9--------------------------------------|
G|-------------x-x--8---------------11/13--11---4/6-----|
D|--6--6-6-6---6-6--x----6--6-6-6----x-xx---x---x-x-----|
A|--6--6-6-6--------6----6--6-6-6----9/11---9---2/4-----|
E|--4--4-4-4-------------4--4-4-4-----------------------|

Em meio à crise
Autoritário opressor
Vem pra contagiar


E|-----------------------------------------------------------|
B|-----------------------------------------------------------|
G|-13-13-13-13-13--16-15-13-11--13-13-13-13-13--11-11-11-11--|
D|-xx-xx-xx-xx-xx--xx-xx-xx--x--xx-xx-xx-xx-xx---x--x--x--x--|
A|-11-11-11-11-11--14-13-11--9--11-11-11-11-11---9--9--9--9--|
E|-----------------------------------------------------------|
                                                              (2x)

E|-----------------------------------------------------------|
B|-----------------------------------------------------------|
G|-13-13-13-13-13--16-15-13-11--13-13-13-13-13--17-17-17-17--|
D|-xx-xx-xx-xx-xx--xx-xx-xx--x--xx-xx-xx-xx-xx--xx-xx-xx-xx--|
A|-11-11-11-11-11--14-13-11--9--11-11-11-11-11--15-15-15-15--|
E|-----------------------------------------------------------|

A epidemia se espalhou
Por todos os lados
A mentira viralizou
Tornou-se real
O horizonte é o ponto cego
Quando se olha só para si

   G#5
E|---------------------------|
B|--------------------0~~~~--|
G|--------------------0~~~~--|
D|--6-6-6-6-6-6-6-6---6~~~~--|
A|--6-6-6-6-6-6-6-6---6~~~~--|
E|--4-4-4-4-4-4-4-4---4~~~~--|
 p.m...............

G#5
É o preço que se paga

G#5
Se a democracia estiver
Entre o rei e o que ele quer
É a caneta ou a espada
Que prevalecerá

E|---------------------|
B|---------------------|
G|-11/13--11---4/6/8---|
D|--x-xx---x---x-x-x---|
A|--9/11---9---2/4/6---|
E|---------------------|

[Refrão]

   G#5         E        G#5         E
E|------------------------------------------------------|
B|-------------9-9--------------------------------------|
G|-------------x-x--8---------------11/13--11---4/6/8---|
D|--6--6-6-6---6-6--x----6--6-6-6----x-xx---x---x-x-x---|
A|--6--6-6-6--------6----6--6-6-6----9/11---9---2/4/6---|
E|--4--4-4-4-------------4--4-4-4-----------------------|

   G#5         E        G#5         E
E|------------------------------------------------------|
B|-------------9-9--------------------------------------|
G|-------------x-x--8---------------11/13--11---4/6-----|
D|--6--6-6-6---6-6--x----6--6-6-6----x-xx---x---x-x-----|
A|--6--6-6-6--------6----6--6-6-6----9/11---9---2/4-----|
E|--4--4-4-4-------------4--4-4-4-----------------------|

Em meio à crise
Autoritário opressor
Vem pra contagiar
Sacramentada pós verdade
Rebanho pronto pra aceitar
Criados pra matar
Aplaudindo o salvador

[Final]

   G#5
E|----------------|
B|----------------|
G|---------0~~~~--|
D|---------6~~~~--|
A|-------6~~~~----|
E|----4~~~~-------|
Composição de Marcão Melloni / Ric Mastria / Rodrigo Lima
Colaboração e revisão:
  • Renan Luiz
170 exibições
    • ½ Tom
    • A
    • Bb
    • B
    • C
    • Db
    • D
    • Eb
    • E
    • F
    • F#
    • G
    • Ab
  • Adicionar à lista

    0 comentários

    Mostrar mais comentários

    Conseguiu tocar?

    1 Tocaram 0 Ainda não

    Grave um vídeo tocando Messias e mande pra gente!

    00:00 / 00:00
    outros vídeos desta música
    repetir qualidade Automático
    Outros vídeos desta música
    00:00 / 00:00
    Automático

    Cifra Club Pro

    Aproveite o Cifra Club com benefícios exclusivos e sem anúncios
    Cifra Club Pro
    Aproveite o Cifra Club com benefícios exclusivos e sem anúncios
    OK