Cifra Club

Aprenda

Modificar

Dead Fish

Cifra: Principal (violão e guitarra)
Tom: C#
Versão 1
-======-

Introdução:     

Riff.1  
        C#m      C#9

e |----4-4-4---4-4-4-4-----|
b |----5-5-5---4-4-4-4-----|
g |----6-6-6---6-6-6-6-----|
D |----6-6-6---6-6-6-6-----|
A |----4-4-4---4-4-4-4-----|
E |------------------------|

Riff1
E então veio 1985 e o sonho por liberdade voltou,
E por todas as ruas o povo gritava loucos por Diretas Já.
Já era hora se fez o tempo, aqueles tempos foram escuros demais,
Toda esperança vinha das ruas e não havia como perder.


Riff2 C#m    E A B    (C#m-E)
   e|-------------------------|
   b|-------------------------|
   g|--6-6--6------------6----|
   D|--6-6--6-9----------6-9--|
   A|--4-4--4-7-7-9-9-9--4-7--|
   E|-----------5-7-7-7-------|

Riff2
Mas desta vez fomos logrados por um colégio eleitoral,
Transição segura, fria e lenta para os que estavam no poder.

*C#m                                     A
E o nosso sonho por saúde e educação se foi, largado pra depois,
E os militares que esperávamos que um dia iriam pagar, continuam no poder.


Riff1
Então veio 88 foi determinado agora sim poderíamos votar (escolher).
Mas um ano depois percebemos o quão estávamos enfraquecidos.
Corações e mentes agora guiados por uma tela de TV.
Nossa vontade já não existia, pois agíamos com zumbis.


Riff2
Pagamos caro pela ilusão, o moderninho nos enganou,
E enquanto retia nossa poupança roubava mais que os ladrões

*C#m                                         A
E o nosso sonho por um dia sermos iguais se foi, foi deixado pra depois.
E os corruptos que esperávamos que um dia iriam pagar acabavam de se eleger.


Riff1 
Quando vieram os anos 90 o caos e cinza tomou conta de tudo.
Salvadores de pátria agora não iram mais ajudar.
Não há mais culpados nem inocentes, agora todos irão pagar,
Mas na guerra sublimada aleijados e analfabetos ainda tentam modificar...

Riff1 (até terminar)

*C#m (C#m abafado)



_______________________________________________________





Versão 2
-======-

Dica: Leia o final da cifra, que explica como ela deve ser tocada


G1: (C#5,E5) G2: Riff 1
E então veio 1985 e o sonho por liberdade voltou,
E por todas as ruas o povo gritava loucos por Diretas Já.
Já era hora se fez o tempo, aqueles tempos foram escuros demais,
Toda esperança vinha das ruas e não havia como perder.


G1 e G2 :Riff 1
Mas desta vez fomos logrados por um colégio eleitoral,
Transição segura, fria e lenta para os que estavam no poder.

G1:(C#5*,E5) G2: Riff3
E o nosso sonho por saúde e educação se foi, largado pra depois,
E os militares que esperávamos que um dia iriam pagar, continuam no poder.


G1: (C#5,E5) G2: Riff 1
Então veio 88 foi determinado agora sim poderíamos votar (escolher).
Mas um ano depois percebemos o quão estávamos enfraquecidos.
Corações e mentes agora guiados por uma tela de TV.
Nossa vontade já não existia, pois agíamos com zumbis.


G1 e G2: Riff 1
Pagamos caro pela ilusão, o moderninho nos enganou,
E enquanto retia nossa poupança roubava mais que os ladrões

G1:(C#5*,E5) G2: Riff3
E o nosso sonho por um dia sermos iguais se foi, foi deixado pra depois.
E os corruptos que esperávamos que um dia iriam pagar acabavam de se eleger.


G1:(C#5,E5) G2: Riff 1
Quando vieram os anos 90 o caos e cinza tomou conta de tudo.
Salvadores de pátria agora não iram mais ajudar.
Não há mais culpados nem inocentes, agora todos irão pagar,
Mas na guerra sublimada aleijados e analfabetos ainda tentam modificar...
-------------------------------------------------------------------------------------------------------

COMO LER A CIFRA DE MODIFICAR
-----------------------------

Nos versos
----------
     G1 é a guitarra base
     G2 é a guitarra solo 
     C#5* = C#5 Abafado 

Acordes
-------
  C#5    E5
e|-4-\ e|-7-\ 
B|-4-| B|-7-|
G|-6-| G|-9-|
D|-6-| D|-9-|
A|-4-| A|-7-|
E|-4-/ E|-7-/

No Refrão
---------
Riff 1
e|-4-4-4--7-6-6-7--6/7-6-7-\
B|-4-4-4--7-6-6-7--6/7-6-7-|
G|-6-6-6--9-8-8-7--8/9-8-7-| 2x
D|-6-6-6--9-8-8-9--8/9-8-9-|
A|-4-4-4--7-6-6-9--6/7-6-9-|
E|-4-4-4--7-6-6-7--6/7-6-7-/

e|-4-4-4-7-7-7-9 -9 -9 -9 -9 -9--\
B|-4-4-4-7-7-7-9 -9 -9 -9 -9 -9--|
G|-6-6-6-9-9-9-11-11-11-11-11-11-| 
D|-6-6-6-9-9-9-11-11-11-11-11-11-|
A|-6-6-6-7-7-7-9 -9 -9 -9 -9 -9 -|
E|-6-6-6-7-7-7-9 -9 -9 -9 -9 -9 -/

e|-4-4-4-7-7-7-10-10-10-10-12-12-12-12-\
B|-4-4-4-7-7-7-10-10-10-10-12-12-12-12-|
G|-6-6-6-9-9-9-12-12-12-12-14-14-14-14-| 
D|-6-6-6-9-9-9-12-12-12-12-14-14-14-14-|
A|-4-4-4-7-7-7-10-10-10-10-12-12-12-12-|
E|-4-4-4-7-7-7-10-10-10-10-12-12-12-12-/


Guitarra Solo:
-------------
Riff 2:
e|-----------\
B|-5555-4444-|
G|-----------|
D|-----------|
A|-----------|
E|-----------/

Riff 3:
e|-5-4-7-4-\
B|---------|
G|---------|
D|---------|
A|---------|
E|---------/

_______________________________________________________






Versão 3
-======-

Afinação : E


Introdução

   C#            E 
E--------------------------------------------------
B--------------------------------------------------
G--6----------9-9-9-9------------------------------
D--6-(15vzs)--9-9-9-9-(2vzs)-----------------------
A--4----------7-7-7-6------------------------------
E--------------------------------------------------

Verso

C#                                             E
E então veio 1985 e o sonho por liberdade voltou
E por todas as ruas o povo gritava louco por "Diretas Já"
Já era hora se fez o tempo, aqueles tempos foram escuros demais
Toda a esperança vinha das ruas e não havia como perder

Pré-Refrão

  C#  E  A  C#  B
E--------------------------------------------------
B--------------------variação1----variação2--------
G--6--9-----6--4----6-6-8-9-9-8--6-6-8-9-9-9-------
D--6--9--7--6--4----4-4-6-7-7-6--4-4-6-7-7-7-------
A--4--7--7--4--2-----------------------------------
E--------5-----------------------------------------

Mas dessa vez fomos logrados
Por um colégio eleitoral
Tradição segura, fria e lenta
Pros que estavam no poder

Refrão

C#(com palm mute)                
E nosso sonho por saúde e educação
A
Se foi, largado pra depois
C#(com palm mute)
Os militares que esperávamos que um dia iriam pagar 
A
Continuam no poder

Verso

C#                                                      E
Então veio 88 foi denomoninado agora sim poderíamos votar
Mas um ano depois percebemos o como estávamos enfraquecidos
Com nossos direitos agora guiados por uma tela de TV
Nossa vontade já desistia pois agíamos como zumbis

Pré-Refrão

  C#  E  A  C#  B
E--------------------------------------------------
B--------------------variação1----variação2--------
G--6--9-----6--4----6-6-8-9-9-8--6-6-8-9-9-9-------
D--6--9--7--6--4----4-4-6-7-7-6--4-4-6-7-7-7-------
A--4--7--7--4--2-----------------------------------
E--------5-----------------------------------------

Pagamos caro pela ilusão
O moderninho nos enganou
E quando ele tinha nossa poupança
Roubava mais que os ladrões

Refrão

C#(com palm mute)                
E nosso sonho por um dia sermos iguais
A
Se foi, foi deixado pra depois
C#(com palm mute)                
E os corruptos que esperávamos que um dia iam pagar
A
Acabavamam de se eleger

Ponte

C#                                                      E
Quando vieram os anos 90 e um caso cinza tomou conta de tudo
Salvadores de pátria agora não iriam mais ajudar
Os culpados, inocentes agora todos iriam pagar
Mas na guerra sublimada legiados de analfabetos eles até vão modificar

Final

C# E

(3:22)
E--------------------------------------------------
B--------------------------------------------------
G--------------------------------------------------
D------11-9---11-9----11-9-------9-----------------
A---------------------------9h11---11p9------------
E--9-9------9-------9-------------------9----------
 (----------------------------------------)
                 palm mute
Composição de Dead Fish
Colaboração e revisão:
  • Gabriel Tôrres
18.743 exibições
    • ½ Tom
    • A
    • Bb
    • B
    • C
    • Db
    • D
    • Eb
    • E
    • F
    • F#
    • G
    • Ab
  • Adicionar à lista

    0 comentários

    Mostrar mais comentários

    Conseguiu tocar?

    0 Tocaram 0 Ainda não

    Grave um vídeo tocando Modificar e mande pra gente!

    00:00 / 00:00
    outros vídeos desta música
    repetir qualidade Automático
    Outros vídeos desta música
    00:00 / 00:00
    Automático

    Cifra Club Pro

    Aproveite o Cifra Club com benefícios exclusivos e sem anúncios
    Cifra Club Pro
    Aproveite o Cifra Club com benefícios exclusivos e sem anúncios
    OK