Cifra Club

Aprenda

Molotov

Dead Fish

Cifra: Principal (violão e guitarra)
Tom: C
(G5-C5-E5-F5)
Muitos corpos caem
Caíram, cairão, camburão
Cassetete, porrada, porrete

(G5-C5-E5-F5)
Muitos nasceram
Viveram, morreram, lutaram
Cobraram, cobraram, correram
Cobraram pra poder comer

(G5-C5-E5-F5)
Curiosos, interessados
Lutadores, mártires, líderes
Comam, briguem, lutem
Levantem-se e caiam mas não 
se esqueçam de se levantar

(G5-A5-E5-C5)
Molotov por todos que ainda irão

(G5-C5-E5-F5)
Plantar, morar
Reformar, reagir, distribuir
Educar, dividir, compartilhar

(G5-C5-E5-F5)
Ensinar, progredir,
Olhar, ignorar, falar
Brigar, brigar, correr, 
correr, comer, correr,
Voltar a lutar

(G5-C5-E5-F5)
Infeliz do operário
Lutou, correu, comeu
Morou, lutou, lutou, gritou
Falou, fome passou

(G5-A5-E5-C5)
Molotov por todos que ainda irão

(G5-A5-E5-C5)
Você viu, indignou
Você viu, e só viu
Ficou olhando, observando
Indignado, estático, apático

(G5-A5-E5-C5)
Enfrentou, combateu
Combateu, combateu, combateu
Gritou, gritou, gritou
Combateu, 
Dormiu na rua
Não acordou, morreu!!!!!!!!!!!!!!!

(G5-A5-E5-C5)
Molotov por todos que ainda irão


Guitarra Solo
-===========-
1° parte
"...Curiosos, interessados
Lutadores, mártires, líderes....."    guitarra oitavada em G

e|--------------------------------------------------------|
B|--------------------------------------------------------|
g|------/14--12--12--12-----------------------------------|
d|------/x---x---x---x------------------------------------|
a|------/12---10--10--10----------------------------------|
E|--------------------------------------------------------|

depois vem uma parte sem cantar e fica G A E C  no útimo C faz oitavada
e|----------------------------------------------------------|
B|----------------------------------------------------------|
g|------9--7--5---------------------------------------------|
d|------x--x--x---------------------------------------------|
a|------7--5--3---------------------------------------------|
E|----------------------------------------------------------|
18.819 exibições
    • ½ Tom
    • A
    • Bb
    • B
    • C
    • Db
    • D
    • Eb
    • E
    • F
    • F#
    • G
    • Ab
  • Adicionar à lista

    0 comentários

    Mostrar mais comentários

    Conseguiu tocar?

    1 Tocaram 0 Ainda não

    Grave um vídeo tocando Molotov e mande pra gente!

    00:00 / 00:00
    outros vídeos desta música
    repetir qualidade Automático
    Outros vídeos desta música
    00:00 / 00:00
    Automático

    Cifra Club Pro

    Aproveite o Cifra Club com benefícios exclusivos e sem anúncios
    Cifra Club Pro
    Aproveite o Cifra Club com benefícios exclusivos e sem anúncios
    OK