Cifra Club

Aprenda

Mulheres Negras

Dead Fish

Cifra: Principal (violão e guitarra)
Tom: A
Intro:

Guitarra 1 toca 2x:

E-----------------------------------------|
B-----------------------------------------|
G--6--------------------------------------|
D--6---4---7---2-222-2-222----------------|
A--4---4---7---2-222-2-222----------------|
E------2---5---0-000-0-000----------------|

Guitarra 2 toca o seguinte depois que a guitarra 1 termina pela 1º e 2º vez o riff de cima:

E-----------------------------------------|
B-----------------------------------------|
G----------------------------9-7-6-7-6----|
D----------------------------x-x-x-x-x----|
A----------------------------7-5-4-5-4----|
E-----------------------------------------|

Começa a cantar e a guitarra 1 toca:

E-----------------------------------------|
B-----------------------------------------|
G--6--------------------------------------|
D--6---4---7---2-222-2-222----------------|
A--4---4---7---2-222-2-222----------------|
E------2---5---0-000-0-000----------------|

E-----------------------------------------|
B-----------------------------------------|
G--6--------------------------------------|
D--6---4---2---7-777-7-777-7-777-7-77-----|
A--4---4---2---7-777-7-777-7-777-7-77-----|
E------2---0---5-555-5-555-5-555-5-55-----|

A guitarra 2 faz o seguinte junto com o riff 2 da 1ºguitarra:

E-----------------------------------------------------|
B-----------------------------------------------------|
G--6--11---9--14-141414-14-141414-14-141414-14-1414---|
D--x---x---x---x--x-x-x--x--x-x-x--x--x-x-x--x--x-x---|
A--4---9---7--12-121212-12-121212-12-121212-12-1212---|
E-----------------------------------------------------|

Depois guitarra 1 toca meio que palm muted e a guitarra 2 não toca nada:

E------------------------------------|
B------------------------------------|
G------------------------------------|
D-------------55---------------------|
A--55-555-555-55---777-444-777-444---|
E--22-222-222-33---555-555-555-555---|

 

E------------------------------------|
B------------------------------------|
G------------------------------999---|
D-------------55-----------222-999---|
A--55-555-555-55---777-444-222-777---|
E--22-222-222-33---555-555-000-------|

Ai volta pro começo....

Depois que tocar tudo de novo vem isso:

Guitarra 1 3x:
E---------------------------|
B---------------------------|
G---------------------------|
D--7---7---7--9---11---11---|
A---77--77--7--77---77------|
E---------------------------|

E a guitarra 2 faz:
E-------------------|
B-------------------|
G-------------------|
D-------------------|
A-------------------|
E--5~~--4-7-5~~-----|

Depois faz 3x:

E-------------------------|
B-------------------------|
G-------------------------|
D-----------9999999-11----|
A--------777--------------|
E----555------------------|

E na 4ºx:

E--------------------------|
B--------------------------|
G--------------------------|
D------------9109109109----|
A---------777--------------|
E-----555------------------|

No final, na parte do "... mais então vamos lá..."

Guitarra 1 fica fazendo:

E--------|
B--------|
G--------|
D--4h5---|
A--------|
E--------|

E a guitarra 2 toca:

E-------------|
B-------------|
G-------------|
D-----55--7---|
A--5--55--7---|
E--2--33--5---|

Depois toca a intro e acaba ^^
Composição de Rodrigo Lima
Colaboração e revisão:
  • lorena
27.065 exibições
    • ½ Tom
    • A
    • Bb
    • B
    • C
    • Db
    • D
    • Eb
    • E
    • F
    • F#
    • G
    • Ab
  • Adicionar à lista

    0 comentários

    Mostrar mais comentários

    Conseguiu tocar?

    2 Tocaram 0 Ainda não

    Grave um vídeo tocando Mulheres Negras e mande pra gente!

    00:00 / 00:00
    outros vídeos desta música
    repetir qualidade Automático
    Outros vídeos desta música
    00:00 / 00:00
    Automático

    Cifra Club Pro

    Aproveite o Cifra Club com benefícios exclusivos e sem anúncios
    Cifra Club Pro
    Aproveite o Cifra Club com benefícios exclusivos e sem anúncios
    OK