Cifra Club

Aprenda

No Chão

Dead Fish

Cifra: Principal (violão e guitarra)
tom: D
A=right guitar B=left guitar

# verse #A /=slide-up
E---------------------------------------------------------------------------|
B---------------------------------------------------------------------------|
G---------------------------------------------------------------------------|
D--------7-------7-------4---4h5-4---4----------7-------7-------4---4h5-4---|
A------9-------9-------5---5-------5---5------9-------9-------5---5---------|
E---/7------/5------/3---------------------/7------/5------/3---------------|

# verse #B X2 *=play 6X #=play 3X
E---------------------------|
B----*---*---#--#--#--#-----|
G---7---6---4-11--4-11------|
D---------------------------|
A---5---4---2--9--2--9------|
E---------------------------|

# verse2 #A X2 m=palm-muting
E-------------------------------------------------------------|
B-------------------------------------------------------------|
G---m-m-m--------m-m-m--------m-m-m--------m-m-m--------------|
D---9-9-99-9-9---7-7-77-7-7---5-5-55-5-5---5-5-55-5-5---------|
A---9-9-99-9-9---7-7-77-7-7---5-5-55-5-5---5-5-55-5-5---------|
E---7-7-77-7-7---5-5-55-5-5---3-3-33-3-3---3-3-33-3-3---------|

# verse2 #B \=slide-down
E-------------------------------------------------------|
B---------7----------7------------7----------77---------|
G-----7----------7-----7------7----------7------7-------|
D---9---9------9---9---9----9---9------9---9------9\----|
A-------------------------------------------------------|
E-------------------------------------------------------|

# chorus #A  %=pause         1st     2nd  *=play 12X #=play 6X +=play 3X
E------------------------%%-------|---------------|
B------------------------%%-------|-------+---+---|
G------------------------%%---*---|---#--7---9----|
D---44-4-44-4-44-4-4-4-4-%%--5----|--5------------|
A---44-4-44-4-44-4-4-4-4-%%--5----|--5---5---7----|
E---22-0-22-0-22-0-2-0-2-%%--3----|--3------------|

# chorus #B %=pause *=play 12X
E------------------------%%-------|
B------------------------%%-------|
G------------------------%%---*---|
D---44-4-44-4-44-4-4-4-4-%%--5----|
A---44-4-44-4-44-4-4-4-4-%%--5----|
E---22-0-22-0-22-0-2-0-2-%%--3----|

# churus #B #=play 6X <<<=pick-slide
E------------------------%%----------|    then play verse #A&B
B------------------------%%----------|              verse2 #A&B
G------------------------%%---#------|              chorus #A&B
D---44-4-44-4-44-4-4-4-4-%%--5---<<<-|
A---44-4-44-4-44-4-4-4-4-%%--5---<<<-|
E---22-0-22-0-22-0-2-0-2-%%--3-------|


# bridge #A   X2                             1st               2nd
E------------------------------------|-------------------|--------------|
B------------------------------------|-------------------|--------------|
G------------------------------------|--m-m-m-m-m-m-m-m--|--------------|
D------------------------------------|--5-5-5-5-5-5-5-5--|---<<<<<<-----|
A---2-deixe-vibrar-------------------|--5-5-5-5-5-5-5-5--|---<<<<<<-----|
E------------------------------------|--3-3-3-3-3-3-3-3--|--------------|

# bridge #B
E-----------------------------------------------------|
B-----------------------------------------------------|
G-------4---4-------4---4-------4---4-------4---4-----|
D-----4---4---4---4---4---4---4---4---4---4---4---4---|
A---2-----------0-------------------------------------|
E---------------------------3-----------3-------------|

# bridge (cont.) #B m=palm-muting
E--------------------------------------------------------------|
B--------------------------------------------------------------|
G-------4---4-------4---4-------m-m-m-m-m-m-m---mmmm---mmmm----|
D-----4---4---4---4---4---4--5--5-5-5-5-5-5-5-5-5555-5-5555-5--|
A---2-----------0------------5--5-5-5-5-5-5-5-5-5555-5-5555-5--|
E----------------------------3--3-3-3-3-3-3-3-3-3333-3-3333-3--|

# end #A X2  *=play 8X
E-----------------------|--------------------------------|
B-----------------------|----*--*--*--*--*--*--*--*------|
G----*------------------|---4--6--7--6--4--6--7-11--4----|
D---9----*---*---*------|--------------------------------|
A---9---9---2---2-------|---2--4--5--4--2--4--5--9--2----|
E---7---5---3---3-------|--------------------------------|

# end #B X4 *=play 8X
E-----------------|-----|
B----*--*--*--*---|-----|
G---4--4--4--4----|--4--|
D---4--4--4--4----|--4--|
A---2--0--2--2----|--2--|
E---------3--3----|-----|
Composição de Dead Fish
10.283 exibições
    • ½ Tom
    • A
    • Bb
    • B
    • C
    • Db
    • D
    • Eb
    • E
    • F
    • F#
    • G
    • Ab
  • Adicionar à lista

    0 comentários

    Ver todos os comentários

    Conseguiu tocar?

    0 Tocaram 0 Ainda não

    Grave um vídeo tocando No Chão e nos envie!

    00:00 / 00:00
    outros vídeos desta música
    repetir qualidade Automático
    Outros vídeos desta música
    00:00 / 00:00
    Automático

    Cifra Club Pro

    Aproveite o Cifra Club com benefícios exclusivos e sem anúncios
    Cifra Club Pro
    Aproveite o Cifra Club com benefícios exclusivos e sem anúncios
    OK