Cifra Club

Aprenda

Obrigação

Dead Fish

Cifra: Principal (violão e guitarra)
Tom: D
Intro: 2X (D5,F#m,G5)base Guitarra 1
Solinho intro:guitarra 2
e|---------------------------------------|
B|-3-3-3-3/7-7/5-5/2-2-2-2/3-3-3-3-------|
G|---------------------------------------|
D|---------------------------------------|
A|---------------------------------------|
E|---------------------------------------|

D5                    B5    G5
Juro que tento entender
D5             B5    G5                                                                             
É difícil mas eu vou te explicar
*Riff:2-Guitarra 2
D5           B5                 G5      
Vejo tudo que já tenho em minha vida
D5               B5                G5   G5 D5 / A / G5
Penso em todos que deixei pra trás
G5            D5                      G5  D5 / A / G5
Nem sempre as coisas mudam pra melhor
G5         D5                    G5  D5 / A / G5
Penso todo dia em nos abortar
*Riff:3-Guitarra 2

B5 / D5 / G5        D5                     B5 / D5 / G5
Eu sei,que perdemos tanto tempo aqui
   D5                  B5 / D5 / G5
me faço de desententido
    D5                          B5 / D5 / G5
Mas sabemos o que nos prender
  A5
A insegurança é o que fez morrer
D5               B  G5
Não é nada confortável
D5                        B5    G5       
Não tente entender se não quiser
*Riff:2-Guitarra 2
D5                       B5  G5
Só não me anule pro seu lado
D5                        B5       A     G5  D5 / A / G5
Siga o seu caminho que eu vou seguir o meu
G5            D5                G5       D / A / G5
Nem sempre as coisas mudam pra melhor
G5         D5                     G5  D5 / A / G5
Penso todo dia em nos abortar
*Riff:3-Guitarra 2
B5 / D5 / G5        D5                   B5 / D5 / G5
Eu sei,que perdemos tanto tempo aqui
   D5                    B5 / D5 / G5
me faço de desententido
    D5                          B5 / D5 / G5
Mas sabemos o que nos prender
  A5
A insegurança é o que fez morrer
(D5,F#m,G5) Riff: intro "junto com o solinho intro"

Só queria agradecer
Por suportar
Pela primeira vez
Nos libertar
*Riff: 3
E|-------------------|
B|-------------------|
G|-------------------|
D|-------------------|
A|-----5-------------|
E|-2/3---------------|

*Riff:2
E|------------------------------------------------------------|
B|------------------------------------------------------------|
G|11-11-11-11-11-6/7-7-7-9/4-4-4-11-11-11-11-14/9-9/12/7-7/4-4|
D|------------------------------------------------------------|
A|-9--9-9-9-9-9-4-/5-5-5-7/2-2-2--9--9--9-9-12/7-7/14/5-5/2-2-|
E|------------------------------------------------------------|
Composição de Dead Fish
Colaboração e revisão:
61.943 exibições
    • ½ Tom
    • A
    • Bb
    • B
    • C
    • Db
    • D
    • Eb
    • E
    • F
    • F#
    • G
    • Ab
  • Adicionar à lista

    0 comentários

    Mostrar mais comentários

    Conseguiu tocar?

    0 Tocaram 0 Ainda não

    Grave um vídeo tocando Obrigação e mande pra gente!

    00:00 / 00:00
    outros vídeos desta música
    repetir qualidade Automático
    Outros vídeos desta música
    00:00 / 00:00
    Automático

    Cifra Club Pro

    Aproveite o Cifra Club com benefícios exclusivos e sem anúncios
    Cifra Club Pro
    Aproveite o Cifra Club com benefícios exclusivos e sem anúncios
    OK