Cifra Club

Aprenda

Paz Verde

Dead Fish

Tab de baixo: Principal
Intro/Verso - 4x
G |----------------|----------------|----------------|-----------------||
D |----------------|----------------|----------------|-----------------||
A |--------7-7-7-7-|--------2-2-2-2-|--------7-7-7-7-|-----------------||
E |-4-4-4-4--------|-2-2-2-2--------|-4-4-4-4--------|-2-2-2-2-2-2-2-2-||

Verso 2 -  |-- 3x --|- 1x ->
G |-----------------|-------------------------||
D |-----------------|-------------------------||
A |-----------------|-------------------------||
E |-0-0-0-0-4-4-4-4-|-0-0-0-0-2-2-2-2-2-2-2-2-||

Refrão 4x
G |-----------------------||
D |-----------------------||
A |------------------2-2--||
E |-4-4-x-4-4-4--0-0------||

Ponte 2x
G |----------------|----------------|----------------|-----------------||
D |----------------|----------------|----------------|-----------------||
A |--------7-7-7-7-|--------2-2-2-2-|--------7-7-7-7-|---------2-2-2-2-||
E |-4-4-4-4--------|-2-2-2-2--------|-4-4-4-4--------|-2-2-2-2---------||

Intro/Verso - 2x 
G |----------------|----------------|----------------|-----------------||
D |----------------|----------------|----------------|-----------------||
A |--------7-7-7-7-|--------2-2-2-2-|--------7-7-7-7-|-----------------||
E |-4-4-4-4--------|-2-2-2-2--------|-4-4-4-4--------|-2-2-2-2-2-2-2-2-||

Verso 2 -  |-- 3x --|- 1x ->
G |-----------------|-------------------------||
D |-----------------|-------------------------||
A |-----------------|-------------------------||
E |-0-0-0-0-4-4-4-4-|-0-0-0-0-2-2-2-2-2-2-2-2-||

Refrão 4x
G |-----------------------||
D |-----------------------||
A |------------------2-2--||
E |-4-4-x-4-4-4--0-0------||

Parada para entrar no solo da guitarra
G |------------||
D |------------||
A |------------||
E |-4-~~~~-4x--||

Solo Guitarra 2x
G |-----------------|---------------||
D |-----------------|---------------||
A |-----------------|---------------||
E |-0-0-0-0-4-4-4-4-|-0-0-0-0-4-~~--||

Sem baixo no resto do solo

Refrão 4x
G |-----------------------||
D |-----------------------||
A |------------------2-2--||
E |-4-4-x-4-4-4--0-0------||

Fim
G |------||
D |------||
A |------||
E |-4-4--||





_______________________________________________________
Contribuição: Rennan Andrello(rennan_andrello@hotmail.com)
Composição de Dead Fish
3.692 exibições

0 comentários

Ver todos os comentários

Conseguiu tocar?

0 Tocaram 0 Ainda não

Grave um vídeo tocando Paz Verde e nos envie!

00:00 / 00:00
outros vídeos desta música
repetir qualidade Automático
Outros vídeos desta música
00:00 / 00:00
Automático

Cifra Club Pro

Aproveite o Cifra Club com benefícios exclusivos e sem anúncios
Cifra Club Pro
Aproveite o Cifra Club com benefícios exclusivos e sem anúncios
OK