Cifra Club

Aprenda

Perfect Party

Dead Fish

Cifra: Principal (violão e guitarra)
Tom: A
A= guitar 1
B= guitar 2


Intro:  A
e|------------------------|
B|------------------------|
G|------------------------|
D|--99-999----------------|
A|--99-999-varias-vez-----|
E|--77-777----------------|


Intro:  B
e|-----------------------------------------------------|
B|-------------------------varias-vezes----------------|
G|----------11111111111111--9h11-111111----------------|
D|-----------9-9-9-9-9-9-9--9-----9-9-9----------------|
A|-----------------------------------------------------|
E|-----------------------------------------------------|

Riff1:  A       m= palm mute
e|------------------------------------|
B|-----------------------------mmmmm--|
G|---------------7------11-9-7-77777--|
D|--9-99-77-555--7-7-99--x-x-x-xxxxx--|
A|--9-99-77-555--5-7-99--9-7-5-55555--|
E|--7-77-55-333----5-77---------------|

Riff1:  B
e|-----------------------------------|
B|-----------------------------------|
G|---------------7------------mmmmm--|
D|--9-99-77-555--7-7-99-9-7-5-55555--|
A|--9-99-77-555--5-7-99-9-7-5-55555--|
E|--7-77-55-333----5-77-7-5-3-33333--|

Riff2:  A
e|-------------------------------------------------------------|
B|-------------------------------------------------------------|
G|------------------------------m-2------------m-2-------------|
D|--9-9-77-555-77-999-77-555555-2-2--555555555-2-2-5555555555--|
A|--9-9-77-555-77-999-77-555555-2-0--555555555-2-0-5555555555--|
E|--7-7-55-333-55-777-55-333333-0----333333333-0---3333333333--|


Riff2:  B
e|------------------------------------------------------------------------------------------------|
B|------------------------------------------------------------------------------------------------|
G|--9/11111111/141414\1212-999/111111/141414/1616-161616--m-2----------------m-2------------------|
D|--x/-x-x-x-x/-x-x-x\-x-x-xxx/-x-x-x/-x-x-x/-x-x--x-x-x--2-2-------333--3^--2-2-------333----3^--|
A|--7/-9-9-9-9/121212\1010-777/-9-9-9/121212/1414-141414--2-0-----22----2----2-0-----22------2----|
E|--------------------------------------------------------0----33-----3------0----33-------3------|

Riff3:  A
e|------------------------|
B|------------------------|
G|------------------------|
D|--99-999----------------|
A|--99-999-varias-vez-----|
E|--77-777----------------|

Riff3:  B
e|-----------------------------|
B|--varias-vezes---------------|
G|--9h11-111111----------------|
D|--9-----9-9-9----------------|
A|-----------------------------|
E|-----------------------------|

Riff4:  A       m= palm mute
e|------------------------------------|
B|-----------------------------mmmmm--|
G|---------------7------11-9-7-77777--|
D|--9-99-77-555--7-7-99--x-x-x-xxxxx--|
A|--9-99-77-555--5-7-99--9-7-5-55555--|
E|--7-77-55-333----5-77---------------|

Riff4:  B
e|-----------------------------------|
B|-----------------------------------|
G|---------------7------------mmmmm--|
D|--9-99-77-555--7-7-99-9-7-5-55555--|
A|--9-99-77-555--5-7-99-9-7-5-55555--|
E|--7-77-55-333----5-77-7-5-3-33333--|

Riff5:  A
e|-------------------------------------------------------------|
B|-------------------------------------------------------------|
G|------------------------------m-2------------m-2-------------|
D|--9-9-77-555-77-999-77-555555-2-2--555555555-2-2-5555555555--|
A|--9-9-77-555-77-999-77-555555-2-0--555555555-2-0-5555555555--|
E|--7-7-55-333-55-777-55-333333-0----333333333-0---3333333333--|


Riff5:  B
e|------------------------------------------------------------------------------------------------|
B|------------------------------------------------------------------------------------------------|
G|--9/11111111/141414\1212-999/111111/141414/1616-161616--m-2----------------m-2------------------|
D|--x/-x-x-x-x/-x-x-x\-x-x-xxx/-x-x-x/-x-x-x/-x-x--x-x-x--2-2-------333--3^--2-2-------333----3^--|
A|--7/-9-9-9-9/121212\1010-777/-9-9-9/121212/1414-141414--2-0-----22----2----2-0-----22------2----|
E|--------------------------------------------------------0----33-----3------0----33-------3------|

solo:   A
e|------------------------|
B|------------------------|
G|------------------------|
D|--99-999----------------|
A|--99-999-varias-vez-----|
E|--77-777----------------|

solo:   B
e|-----------------------------------------------------------------|
B|-------------------------------------------------------------2x--|
G|--9h11-1111119111211-11119119119h11-111111-911911-119119119------|
D|--9-----9-9-99-9-9-9--9-99-99-99--9--9-9-9-9-99-9--99-99-99------|
A|-----------------------------------------------------------------|
E|-----------------------------------------------------------------|

final:  A
e|------------------------|
B|------------------------|
G|------------------------|
D|--99-999----------------|
A|--99-999-varias-vez-----|
E|--77-777----------------|

final:  B
e|------------------------------------------|-------------------|
B|----mm--10---10----mm--10-----------------|--10---------------|
G|--mm11m---11-----mm11m---11-varias-vezes--|--11-varias-vezes--|
D|--99--9----------99--9--------------------|---9---------------|
A|------------------------------------------|-------------------|
E|------------------------------------------|-------------------|

no final da musica fazer intro algumas vez... valeu!!!
Composição de Dead Fish
Colaboração e revisão:
  • vinicius Andrade
3.986 exibições
    • ½ Tom
    • A
    • Bb
    • B
    • C
    • Db
    • D
    • Eb
    • E
    • F
    • F#
    • G
    • Ab
  • Adicionar à lista

    0 comentários

    Mostrar mais comentários

    Conseguiu tocar?

    0 Tocaram 0 Ainda não

    Grave um vídeo tocando Perfect Party e mande pra gente!

    00:00 / 00:00
    outros vídeos desta música
    repetir qualidade Automático
    Outros vídeos desta música
    00:00 / 00:00
    Automático

    Cifra Club Pro

    Aproveite o Cifra Club com benefícios exclusivos e sem anúncios
    Cifra Club Pro
    Aproveite o Cifra Club com benefícios exclusivos e sem anúncios
    OK