Cifra Club

Aprenda

Rei do Açúcar

Dead Fish

Cifra: Principal (violão e guitarra)
Tom: G
(intro) A

(riff 1)
E|----------------------------------------------------------------|
B|----------------------------------------------------------------|
G|----------------------------------------------------------------|
D|-7-7-7-7-7-7-7^-7-7-7-7-7-7-7^-7-7-7-7-7-7-7^-7-7-7-7-7-7-xxxx--|
A|-0-0-0-0-0-0-0--0-0-0-0-0-0-0--0-0-0-0-0-0-0--0-0-0-0-0-0-xxxx--|
E|----------------------------------------------------------------|

(riff 2) A C D
E|----------------------------------------------|
B|----------------------------------------------|
G|-9-9-9-9-9-9-9-9-9-9-9-9-9-9-9-11-11-11-12-11-|
D|-x-x-x-x-x-x-x-x-x-x-x-x-x-x-x-x--x--x--x---x-|
A|-7-7-7-7-7-7-7-7-7-7-7-7-7-7-7-9--9--9--10--9-|
E|----------------------------------------------|

E|----------------------------------------------------------|
B|----------------------------------------------------------|
G|-9-9-9-9-9-9--14-14-14-14-14-14-12-12-12-12-12-12--11-9-7-|
D|-x-x-x-x-x-x--x--x--x--x--x--x--x--x--x--x--x--x---x--x-x-|
A|-7-7-7-7-7-7--12-12-12-12-12-12-10-10-10-10-10-10--9--7-5-|
E|----------------------------------------------------------|

   A       C       D         A
O vento mudou não sopra a favor
    A        C         D      A
No canto dos olhos a conspiração
    A      C        D       A
É quase a hora sem ter o lugar
      A         C        D           D
Pois servos precisam de queda e ascenção

A             C          F   D           A
   Um novo herói irá surgir e se convencer
   C          G           F          A
   Que será eterno quando a chuva cair
             C          F        D     A(Riff 3)
   Sonhos sinceros de poder pra corromper
               C            G       F
   Bodes espiatórios de um jogo sem fim

(riff 3)
E|-----------------------------------------------|
B|----12-------13-12-----------------------------|
G|-------12----------12--14---12-----------------|
D|-14-------14--------------12---14-12-10-12-----|
A|-------------------------------------------12~-|
E|-----------------------------------------------|

(riff4) A  A  F             G       A F    G          A
                 Quando a chuva cair e varrer as certezas
                F          G **    A
                 De suas frágeis raizes
                F           G     A
                 Quando a chuva cair

(riff 4)
E|----------------------------------------------|
B|----------------------------------------------|
G|-9-9-9-9-9-9-9-9-9-9-9-9-14-12-12-12-12-7-7-7-|
D|-x-x-x-x-x-x-x-x-x-x-x-x-x--x--x--x--x--x-x-x-|
A|-7-7-7-7-7-7-7-7-7-7-7-7-12-10-10-10-10-5-5-5-|
E|----------------------------------------------|

E|--------------------------------------------------------------|
B|--------------------------------------------------------------|
G|-6-6-6-6-6-6-7-9-9-9-9-9-9-9-14-12-12-12-12-12-12-7-7-7-7-7-7-|
D|-7-7-7-7-7-7-x-x-x-x-x-x-x-x-x--x--x--x--x--x--x--x-x-x-x-x-x-|
A|-0-0-0-0-0-0-5-7-7-7-7-7-7-7-12-10-10-10-10-10-10-5-5-5-5-5-5-|
E|--------------------------------------------------------------|

** Nessa parte tem 2 harmônicos que são respectivamente G5 e D5

(final) riff 1 com wah-wah
Composição de Dead Fish
Colaboração e revisão:
  • Gabriel Mezzavilla
  • Pedro Rodrigues
8.937 exibições
    • ½ Tom
    • A
    • Bb
    • B
    • C
    • Db
    • D
    • Eb
    • E
    • F
    • F#
    • G
    • Ab
  • Adicionar à lista

    0 comentários

    Mostrar mais comentários

    Conseguiu tocar?

    0 Tocaram 0 Ainda não

    Grave um vídeo tocando Rei do Açúcar e mande pra gente!

    00:00 / 00:00
    outros vídeos desta música
    repetir qualidade Automático
    Outros vídeos desta música
    00:00 / 00:00
    Automático

    Cifra Club Pro

    Aproveite o Cifra Club com benefícios exclusivos e sem anúncios
    Cifra Club Pro
    Aproveite o Cifra Club com benefícios exclusivos e sem anúncios
    OK