Cifra Club

Aprenda

Reprogresso

Dead Fish

Cifra: Principal (violão e guitarra)
tom: A
#A=Guitarra do Murilo #B= segunda guitarra

# intro #A X4
E---4-4-4--4--5----|
B---4-4-4--4--5----|
G---6-6-6--4--6----|
D---6-6-6--6--7----|
A---4-4-4--6--7----|
E----------4--5----|

# intro #B X2
E---------------------------------|
B---------------------------------|
G-----6-6h8-6-----6-6h8-6---6-8b--|
D---6---------6-6---------6-------|
A---------------------------------|
E---------------------------------|
                          f=play flute on a fret
# verse #A   *=play 14x   between notes...
E----------------------------------|
B----------------------------------|
G---6-6-6--------------------------|
D---6-6-6----*---------------------|
A---4-4-4-4f5--44-44-44--77-777----|
E--------------55-55-55--44-444----|

# verse #B   *=play 14x
E----------------------------------|
B----------------------------------|
G---6-6-6--------------------------|
D---6-6-6--------------------------|
A---4-4-4----*-44-44-44--77-777----|
E---------4f5--55-55-55--44-444----|

# chorus #A X2 *=play 5-6x #=play 2-3x
E------------------------------------------------------|
B----*---#--#--*---#--#--*---#--#-------------------*--|
G---4--14-13--6--13-14--4--14-13--4/6-6/8-8/9-9-9/13---|
D------------------------------------------------------|
A---2--12-11--4--11-12--2--12-11--2/4-4/6-6/7-7-7/11---|
E------------------------------------------------------|

# chorus #B X2 +=play 8x 
E----------------------------------------------------|
B-------------------------------------------------+--|
G---9\8-88-99\8-88-99\8-88-99\8-88-9-811-99-88-9-6---|
D----------------------------------------------------|
A---7\6-66-77\6-66-77\6-66-77\6-66-7-6-9-77-66-7-4---|
E----------------------------------------------------|

# (cont.) #B *=play 5-6x 
E------------------------------------------------------------|
B--------------------------------------------------------*---|  
G---9\8-88-99\8-88-99\8-88-99\8-88-9-8-4/6-6/8-8/9-9-9/13----|
D------------------------------------------------------------|
A---7\6-66-77\6-66-77\6-66-77\6-66-7-6-2/4-4/6-6/7-7-7/11----|
E------------------------------------------------------------|

then play intro, verse, chorus, intro

# end #A *=play 14x
E----------------------------|
B----------------------------|
G---6-6-6--------------------|
D---6-6-6----*---------------|
A---4-4-4-4f5--44-44-44------|
E--------------55-55-55------|

# end #B #=play 7x
E----------------------------|
B----------------------------|
G---6-6-6--------------------|
D---6-6-6----#---------------|
A---4-4-4-4f5-----#-44-44-44-|
E--------------4f5--55-55-55-|

---------------------------

REPROGRESSO
não há chão para pisar, não me lembro deste lugar.
aqui onde hoje passam os ônibus minha avó pisava
ao mar e é por isso que estou aqui e com força me
seguro em ti pois não sei de onde venho. talvez possa
até ser bom mas queria tanto ver a história que o asfalto
tapou. esta fumaça que não existia agora me impede de
te olhar e o progresso que suja o horizonte me tornou
tão intolerante. mais uma geração se perdeu, isso não
pode ter sido sem querer e vimos o prédio crescer. e
parados a ilha afundou. só soubemos nos matar. as ilhas
na ilha. ria de mim pois sou o medo de você mesmo . 
Composição de Dead Fish
9.883 exibições
    • ½ Tom
    • A
    • Bb
    • B
    • C
    • Db
    • D
    • Eb
    • E
    • F
    • F#
    • G
    • Ab
  • Adicionar à lista

    0 comentários

    Ver todos os comentários

    Conseguiu tocar?

    0 Tocaram 0 Ainda não

    Grave um vídeo tocando Reprogresso e nos envie!

    00:00 / 00:00
    outros vídeos desta música
    repetir qualidade Automático
    Outros vídeos desta música
    00:00 / 00:00
    Automático

    Cifra Club Pro

    Aproveite o Cifra Club com benefícios exclusivos e sem anúncios
    Cifra Club Pro
    Aproveite o Cifra Club com benefícios exclusivos e sem anúncios
    OK