Cifra Club

Aprenda

Senhor, Seu Troco

Dead Fish

Cifra: Principal (violão e guitarra)
Tom: C
Guit. Hospede

a afinação é (DAdGBE)
    0:00        0:02    0:03
e|---------------------------------------------------------------------------| 
B|---------------------------------------------------------------------------| 
G|---------------------------------------------------------------------------| 
D|--0-0-0-0---3-3-3-3---5-5-5-5----------------------------------------------| 
A|--0-0-0-0---3-3-3-3---3-3-3-3----------------------------------------------| 
D|--0-0-0-0---3-3-3-3--------------------------------------------------------| 
    0:04        0:05        0:07        
e|---------------------------------------------------------------------------| 
B|---------------------------------------------------------------------------| 
G|--7-7-7-7---10-10/9-9/14---------------------------------------------------| 
D|--------------------------3-3-3--------------------------------------------| 
A|--5-5-5-5---8--8//7-7/12--3-3-3--------------------------------------------| 
D|--------------------------3-3-3--------------------------------------------| 
    0:08        0:10       0:11       0:12      
e|---------------------------------------------------------------------------| 
B|---------------------------------------------------------------------------| 
G|---------------------------------------------------------------------------| 
D|--0-0-0-0------7-5-----3-3-3-3---5-5-5-5-----------------------------------| 
A|--0-0-0-0--5-8-----8---1-1-1-1---3-3-3-3-----------------------------------| 
D|--0-0-0-0------------------------------------------------------------------| 
    0:13        0:15          0:17
e|---------------------------------------------------------------------------| 
B|---------------------------------------------------------------------------| 
G|------------10-10-10/9-9-9-------------------------------------------------| 
D|--7-7-7-7-------------------0----------------------------------------------| 
A|--5-5-5-5---8--8--8-/7-7-7--0----------------------------------------------| 
D|----------------------------0----------------------------------------------| 
    0:17        0:19
e|---------------------------------------------------------------------------| 
B|---------------------------------------------------------------------------| 
G|---------------------------------------------------------------------------| 
D|--*-*-*-*---3-3-3-0--------------------------------------------------------|   4x
A|--*-*-*-*---3-3-3-0--------------------------------------------------------| 
D|--*-*-*-*---3-3-3-0--------------------------------------------------------| 

Phillipe                    0:02             0:03
e|------------------------------------------------------------------------------------------| 
B|------------------------------------------------------------------------------------------| 
G|--17-17-17-17-17/15/14/12/10-10-10-10/14-14-9-9-12-12-10-10-10-10-14-14-12-12-10-10-10-10-| 
D|------------------------------------------------------------------------------------------| 
A|--15-15-15-15-15/13/12/10/8--8--8--8//12-12-7-7-10-10-8--8--8--8--12-12-10-10-8--8--8--8--| 
D|---------------------------------------------------------------------------| 
    0:07         0:10
e|---------------------------------------------------------------------------| 
B|---------------------------------------------------------------------------| 
G|---------------------------------------------------------------------------| 
D|--3-3-3-3-------3-2----3-3-3-3--5-5-5-5------------------------------------| 
A|--3-3-3-3---3-5-----3--1-1-1-1--3-3-3-3------------------------------------| 
D|--3-3-3-3------------------------------------------------------------------| 
    0:13                          0:17
e|---------------------------------------------------------------------------| 
B|---------------------------------------------------------------------------| 
G|--14-14-14-14--------------------------------------------------------------| 
D|---------------3-3-3-3--5-5-3-3-0-0----------------------------------------| 
A|--12-12-12-12--1-1-1-1--3-3-3-3-0-0----------------------------------------| 
D|----------------------------3-3-0-0----------------------------------------| 
    0:17
e|---------------------------------------------------------------------------| 
B|---------------------------------------------------------------------------| 
G|---------------------------------------------------------------------------| 
D|--0------------------------------------------------3-3-3-0-----------------| 
A|--0------------------------5*-5*-5*-5*-5*-5*-5*-5*-3-3-3-0-----------------| 
D|--0-5*-5*-5*-5*-5*-5*-5*-5*------------------------3-3-3-0-----------------| 
    0:19
e|---------------------------------------------------------------------------| 
B|---------------------------------------------------------------------------| 
G|---------------------------------------------------------------------------| 
D|--0------------------------------------------------------0-----------------| 
A|--0------------------------5*-5*-5*-5*-5*-5*-5*-5*-------0-----------------| 
D|--0-5*-5*-5*-5*-5*-5*-5*-5*------------------------3/5/3-0-----------------| 
    0:21
e|---------------------------------------------------------------------------| 
B|---------------------------------------------------------------------------| 
G|---------------------------------------------------------------------------| 
D|--0------------------------------------------------3-3-3-0-----------------| 
A|--0------------------------5*-5*-5*-5*-5*-5*-5*-5*-3-3-3-0-----------------| 
D|--0-5*-5*-5*-5*-5*-5*-5*-5*------------------------3-3-3-0-----------------| 
    0:23
e|---------------------------------------------------------------------------| 
B|---------------------------------------------------------------------------| 
G|---------------------------------------------------------------------------| 
D|--0------------------------------------------------------0-----------------| 
A|--0------------------------5*-5*-5*-5*-5*-5*-5*-5*-------0-----------------| 
D|--0-5*-5*-5*-5*-5*-5*-5*-5*------------------------3/5/3-0-----------------|
Composição de Dead Fish
Colaboração e revisão:
  • tiago lemes
  • Filipe Campos
17.194 exibições
    • ½ Tom
    • A
    • Bb
    • B
    • C
    • Db
    • D
    • Eb
    • E
    • F
    • F#
    • G
    • Ab
  • Adicionar à lista

    0 comentários

    Mostrar mais comentários

    Conseguiu tocar?

    0 Tocaram 0 Ainda não

    Grave um vídeo tocando Senhor, Seu Troco e mande pra gente!

    00:00 / 00:00
    outros vídeos desta música
    repetir qualidade Automático
    Outros vídeos desta música
    00:00 / 00:00
    Automático

    Cifra Club Pro

    Aproveite o Cifra Club com benefícios exclusivos e sem anúncios
    Cifra Club Pro
    Aproveite o Cifra Club com benefícios exclusivos e sem anúncios
    OK