Cifra Club

Aprenda

Siga

Dead Fish

Cifra: Principal (violão e guitarra)
Tom: F#
Intro: (F# G A) GUITAR 1: Bb B C# /  GUITAR 2: Bb F# E

E|----------|             
B|----------|
G|-3--4--6--|
D|----------|
A|-1--2--4--|
E|----------|

E|----------|
B|----------|
G|-3--11--9-|
D|----------|
A|-1--9--7--|
E|----------|

(B D G A)
Não se compra 
não se vende
Não se expande
não se retrai (riff 1)
Não existe nada de meio  (riff 2)
Apenas é ou não

(G E D F# A F#) (riff 3)
Existe uma reta em
várias curvas
Não está parada,
não é veloz
Não é alvo, não é meta
Nem se pode esperar
sem condição
sem sim, nem não
É importante desviar e distrair! (riff 4) ôoôoô

(B D A F#)
Siga este caminho e vai
encontrar, (riff 5)
Não há caminho, 
Nem o que ver (riff 6)
Está em você, está em mim,
está em nós

2x B D G A (riff 7)  

(G E D F# A F#) (riff 3)
Não está no outro, no ouro
no céu, no inferno
Ou no homem, em Deus
Está bem aí dentro, está
em suas mãos
Basta ver, encontrar e usar
Está nos olhos que choram
Na sensação de felicidade
de matar quem te matou
(riff 8)

(B D G A)
Mas se isso não importa,
volte logo ao trabalho (riff 2)
Aceite seu limite e como a 
sua ração!

Final: D B


Tablatura:

não se retrai... 

riff 1

E|-5------------|
B|----3--0--2--3|
G|--------------|
D|--------------|
A|--------------|
E|--------------|

riff 2
E|----------|
B|----------|
G|-4--6--7--|
D|----------|
A|-2--4--5--|
E|----------|


Apenas é ou não...

riff 3
E|------------------------------------------------|
B|------------------------------------------------|
G|-12--14--15--16--9--7--11-9--14--15--16--11--9--|
D|------------------------------------------------|
A|-10--12--13--13--7--5--9--7--12--13--13--9---7--|
E|--------------------------0------------------0--|


É importante deviar e distrair...

riff 4

E|-0/5-7--------|
B|-------7------|
G|---------7----|
D|--------------|
A|--------------|
E|--------------|

Siga este caminho e vai encontrar..

riff 5
E|--------------|
B|--------------|
G|-6--6--7--6---|
D|--------------|
A|-4--4--5--4---|
E|--------------|

Não há caminho, nem o que ver...

riff 6
E|----------------|
B|----------------|
G|-9--9--11--9---|
D|----------------|
A|-7--7--9---7---|
E|----------------|

Está em voce, esta em mim, esta em nos...

riff 7
E|---------------|
B|---------------|
G|-4--6--7--6--7-|
D|---------------|
A|-2--4--5--4--5-|
E|---------------|

Na sensação de felicidade, de matar, quem te matou...

riff 8
E|----------|             
B|----------|
G|-3--4--6--|
D|----------|
A|-1--2--4--|
E|----------|
Composição de Dead Fish
Colaboração e revisão:
  • Gabriel Fernandes
12.235 exibições
    • ½ Tom
    • A
    • Bb
    • B
    • C
    • Db
    • D
    • Eb
    • E
    • F
    • F#
    • G
    • Ab
  • Adicionar à lista

    0 comentários

    Mostrar mais comentários

    Conseguiu tocar?

    0 Tocaram 0 Ainda não

    Grave um vídeo tocando Siga e mande pra gente!

    00:00 / 00:00
    outros vídeos desta música
    repetir qualidade Automático
    Outros vídeos desta música
    00:00 / 00:00
    Automático

    Cifra Club Pro

    Aproveite o Cifra Club com benefícios exclusivos e sem anúncios
    Cifra Club Pro
    Aproveite o Cifra Club com benefícios exclusivos e sem anúncios
    OK