Cifra Club

Aprenda

Subprodutos

Dead Fish

Cifra: Principal (violão e guitarra)
Tom: C
Intro

d#|-----------------------------------------------------------------------------------------
a#|-----------------------------------------------------------------------------------------
f#|-8-7-5-10-8-7 10101010-12-12-5-5----------------10-10-10-9--9--9--10-10-10-9--9--9-------
C#|-x-x-x--x-x-x--x-x-x-x-x--x--x-x----------------10-10-10-10-10-10-10-10-10-10-10-10------
G#|-6-5-3--8-6-5 -8-8-8-8-10-10-3-3--6-5-3--8-6-5-------------------------------------------
D#|-----------------------------------------------------------------------------------------

d#|-----------------------------------------------------------
a#|------------------------------------------------------------
f#|-8-7-5-10-8-710101010-12-10-12-10-12-10-12-10-8-7-5-10-8-7--
C#|-x-x-x--x-x-x-x-x-x-x-------------------------x-x-x--x-x-x--
G#|-6-5-3--8-6-5-8-8-8-8-------------------------6-5-3--8-6-5--
D#|------------------------------------------------------------

       A felicidade é para poucos Todos nós sabemos: o mundo é ruim...
d#|-----------------------------------------------------------------------------------------------
a#|-----------------------------------------------------------------------------------------------
f#|-5---13------14----------9------8--------10----------------------------------------------------
C#|-x---x-------x-----------x------x---------x---------2-2-2-3-5--------------x-x-x1010-x-x-x1010-
G#|-3---11------13----------7------6---------8---------3-3-3-3-3--6-6-6--6-5--x-x-x-8-8-x-x-x-8-8-
D#|---------------------------------------------------------------4-4-4--4-4----------------------

        G#         A#  G# A# G# A#
...você precisaaaaaaa!

F5                        G#    A#  G# A# G# A#
Angústia na virada da estação
F5                             G#   A#  G# A# G# A#
Um produto pra te tornar especial
F5            C5   C#       G#
Consumo necessário and very cool
G5
Não seja um perdedor


Refrão
C5           F#/D
A grande solução
           F5
Vamos resolver
           C5
Uma pra dormir, duas pra acordar
C5      F#/D
Bem adaptados
             F5
Todos passam bem
          C5
Belo novo mundo

Acordes Refrão
  C5    F#/D     F5
d#|---------------------
a#|---------------------
f#|-5-------------------
C#|-5------4-------3----
G#|-3------5-------3----
D#|--------2-------1----

Composição de Dead Fish
Colaboração e revisão:
  • Alessandro Rufino
3.868 exibições
    • ½ Tom
    • A
    • Bb
    • B
    • C
    • Db
    • D
    • Eb
    • E
    • F
    • F#
    • G
    • Ab
  • Adicionar à lista

    0 comentários

    Mostrar mais comentários

    Conseguiu tocar?

    0 Tocaram 0 Ainda não

    Grave um vídeo tocando Subprodutos e mande pra gente!

    00:00 / 00:00
    outros vídeos desta música
    repetir qualidade Automático
    Outros vídeos desta música
    00:00 / 00:00
    Automático

    Cifra Club Pro

    Aproveite o Cifra Club com benefícios exclusivos e sem anúncios
    Cifra Club Pro
    Aproveite o Cifra Club com benefícios exclusivos e sem anúncios
    OK