Cifra Club

Aprenda

Tango

Dead Fish

Cifra: Principal (violão e guitarra)
Tom: G
#INTRO.
guitarra #1 (G Bb C D# -> D)
guitarra #2
e|---------------------------------------------------------------------------|
B|---------------------------------------------------------------------------|
G|---------------------------------------------------------------------------|
D|-10-10-8-8-8-7-7-7-5-5-5-10-10-10-8-8-8-7-7-7-5-5-5-10-10-10-8-8-8-7-7-7---|
A|---------------------------------------------------------------------------|
E|---------------------------------------------------------------------------|

e|---------------------------------------------------------------------------|
B|---------------------------------------------------------------------------|
G|---------------------------------------------------------------------------|
D|-5-5-5-10-10-10-8-8-8-10-10-10-8-7-7/6-7-----------------------------------|
A|---------------------------------------------------------------------------|
E|---------------------------------------------------------------------------|

GUITARRA #2 - VAMOS CHAMAR ESTA PARTE DE (*)
faz esta parte no final de cada nota da GUITARRA #1
e|---------------------------------------------------------------------------|
B|-------------------8-----8-------------------------------------------------|
G|---------------------7-7---7-7---------------------------------------------|
D|---------------------------------------------------------------------------|
A|---------------------------------------------------------------------------|
E|---------------------------------------------------------------------------|

PRE-REFRÃO
GUITARRA #2 
e|-----------------------------6----10----------------6----10----------------|
B|------------------7h8p7-10-7---10----8-7-7h8p7-10-7---10-------------------|
G|---------------------------------------------------------------------------|
D|---------------------------------------------------------------------------|
A|---------------------------------------------------------------------------|
E|---------------------------------------------------------------------------|

GUITARRA #1 (*=8 tempo)  (**=4 tempos)
e|---------------------------------------------------------------------------|
B|---------------------------------------------------------------------------|
G|-10*--12*---3-3/7-7/8-8/10**-----------------------------------------------|
D|-x*---x*----x-x/x-x/x-x/x**------------------------------------------------|
A|-8*--10*----1-1/5-5/6-6/8**------------------------------------------------|
E|---------------------------------------------------------------------------|
tu é a vida real....

GUITARRA #2
e|---------------------------------------------------------------------------|
B|---------------------------------------------------------------------------|
G|----------------------8---8...---------------------------------------------|
D|----------------------7---7...---------------------------------------------|
A|---------------------------------------------------------------------------|
E|---------------------------------------------------------------------------|
tu és a vida real....

CHORUS
GUITARRA #2
e|---------------------------------------------------------------------------|
B|-7h9p7-7h9p7-7h9p7...------------------------------------------------------|
G|---------------------------------------------------------------------------|
D|---------------------------------------------------------------------------|
A|---------------------------------------------------------------------------|
E|---------------------------------------------------------------------------|
GUITARRA #1 (*=8 tempo)  (**=4 tempos)
e|---------------------------------------------------------------------------|
B|---------------------------------------------------------------------------|
G|-10*--12*---3-3/7-7/8-8/10**-----------------------------------------------|
D|-x*---x*----x-x/x-x/x-x/x**------------------------------------------------|
A|-8*--10*----1-1/5-5/6-6/8**------------------------------------------------|
E|---------------------------------------------------------------------------|
tu é a vida real....
CHORUS
GUITARRA #1 (*=8 tempo)  (**=4 tempos)
e|---------------------------------------------------------------------------|
B|---------------------------------------------------------------------------|
G|-10-108-87-75-5/10*---3-3/7-7/8-8/10**----------------------------------|
D|--x--xx-xx-xx-x/x*----x-x/x-x/x-x/x**-----------------------------------|
A|--8--86-65-53-3/12*---1-1/5-5/6-6/8**-----------------------------------|
E|---------------------------------------------------------------------------|


(G : Bb C D# D) (*)
foi difícil entender
impossível de acreditar
uma vida devotada embasada em sobreviver
mais que qualquer ideal sobressai o teu amor
não há ruas, partidos e regras para te deter
(G : F D# C) - Tocar abafado
mais que uma instituição
feita para deformar

(D# C Bb E)
#PRE-REFRÃO
liberdade e emoção me permitiram sonhar
#FIM DO PRE-REFRÃO

(G : Bb C D# D) (*)
tu és a vida real, 
e sempre esteve de pé,
nunca reclamou da batalha que é criar.
#REFRÃO
sociedade e discriminação,
cabeça erguida a enfrentar,
nenhum patriarcado ou família te fizeram calar.
#FIM DO REFRÃO

#INTRO. 1X

(G : Bb C D# D) (*)
não há nada a provar,
eu já posso entender.
(D# C Bb E) (*)
o que pode ser mais rebelde depois de você?
forte, viva e a sorrir
sua vitória deve insultar
a todos que preferem te ver a chorar.

(G : F D# C) - Tocar abafado

acredite aprendi demais,
seu silêncio constrangedor.
#PRE-REFRÃO
liberdade é muito mais que palavras a dizer.
#FIM PRE-REFRÃO

(G : Bb C D# D) (*)- mais rápido
gostaria de agradecer, 
espero um dia retribuir,
coração do meu céu, por favor, seja feliz!
#REFRÃO
agora vem a tua vez! usuflua do teu amor, 
sua prole sobreviveu e só resta agradecer...
#FIM REFRÃO

PARA FINALIZAR TOCAR INTRO 2X

A BASE TERMINANDO COM COM 6 BATIDAS NO "G" DE 2 EM 2 VEZES
Composição de Dead Fish
44.493 exibições
    • ½ Tom
    • A
    • Bb
    • B
    • C
    • Db
    • D
    • Eb
    • E
    • F
    • F#
    • G
    • Ab
  • Adicionar à lista

    0 comentários

    Mostrar mais comentários

    Conseguiu tocar?

    0 Tocaram 1 Ainda não

    Grave um vídeo tocando Tango e mande pra gente!

    00:00 / 00:00
    outros vídeos desta música
    repetir qualidade Automático
    Outros vídeos desta música
    00:00 / 00:00
    Automático

    Cifra Club Pro

    Aproveite o Cifra Club com benefícios exclusivos e sem anúncios
    Cifra Club Pro
    Aproveite o Cifra Club com benefícios exclusivos e sem anúncios
    OK