Cifra Club

Aprenda

Tudo

Dead Fish

Cifra: Principal (violão e guitarra)
Tom: D
(GUITARRISTA: PHILIPPE)

Intro
E|-------------------------------------------------------------|
B|-------------------------------------------------------------|
G|-7-7-7-7-6-6-6-9-9-9-9-9-11-11-11-11-11-11-11-11-11-11-11-11-|
D|-x-x-x-x-x-x-x-x-x-x-x-x--x--x--x--x--x--x--x--x--x--x--x--x-|
A|-5-5-5-5-4-4-4-7-7-7-7-7--9--9--9--9--9--9--9--9--9--9--9--9-|
D|-------------------------------------------------------------|

E|----------------------------------------------|
B|----------------------------------------------|
G|-7-7-7-7-6-6-6-9-9-9-9-9-11-7-7-7-7-7-7-7-7-7-|
D|-x-x-x-x-x-x-x-x-x-x-x-x--x-x-x-x-x-x-x-x-x-x-|
A|-5-5-5-5-4-4-4-7-7-7-7-7--9-5-5-5-5-5-5-5-5-5-|
D|----------------------------------------------|

E|----------------------------------------------------------------|
B|----------------------------------------------------------------|
G|-7-7-7-7-6-6-6-9-9-9-9-9-11-11-11-11-11-11-12-11-11-11-11-11-11-|
D|-x-x-x-x-x-x-x-x-x-x-x-x--x--x--x--x--x--x--x--x--x--x--x--x--x-|
A|-5-5-5-5-4-4-4-7-7-7-7-7--9--9--9--9--9--9-10--9--9--9--9--9--9-|
D|----------------------------------------------------------------|

E|----------------------------------------------|
B|----------------------------------------------|
G|-7-7-7-7-6-6-6-9-9-9-9-9-11-7-7-7-7-7-7-7-7-7-|
D|-x-x-x-x-x-x-x-x-x-x-x-x--x-x-x-x-x-x-x-x-x-x-|
A|-5-5-5-5-4-4-4-7-7-7-7-7--9-5-5-5-5-5-5-5-5-5-|
D|----------------------------------------------|

VERSO
E|--------------------------------------------------------|
B|--------------------------------------------------------|
G|--------------------------------------------------------|
D|-4-4-4-4-4-4-7-7-7-7-7-7------------------------0-2-0---|
A|-2-2-2-2-2-2-5-5-5-5-5-5-5-5-5-5-5-5-2-2-2-2-2--------2-|
D|-------------------------5-5-5-5-5-5-2-2-2-2-2----------|
     * * * *     * * * *     * * * *     * * * * 
E|-------------------------------------------------------|
B|-------------------------------------------------------|
G|-------------------------------------------------------|
D|-4-4-4-4-4-4-7-7-7-7-7-7-----------------------4-5-4---|
A|-2-2-2-2-2-2-5-5-5-5-5-5-5-5-5-5-5-5-2-2-2-2-2-------5-|
D|-------------------------5-5-5-5-5-5-2-2-2-2-2---------|
     * * * *     * * * *     * * * *     * * * * 
E|---------------------------------------------------------------|
B|---------------------------------------------------------------|
G|-----4-----4-11-----11------11-7-----7-----7-4-----4-----------|
D|-----x-----x--x------x-------x-x-----x-----x-x-----x---0-2-0---|
A|-2-2-2-2-2-2--9-9-9--9--9-9--9-5-5-5-5-5-5-5-2-2-2-2---------2-|
D|---------------------------------------------------------------|

E|-------------------------------------------------------|
B|-------------------------------------------------------|
G|-------------------------------------------------------|
D|-4-4-4-4-4-4-7-7-7-7-7-7-7-----------------------------|
A|-2-2-2-2-2-2-5-5-5-5-5-5-5-5-5-5-5-5-5-5-2-2-2-2-2-2-2-|
D|---------------------------5-5-5-5-5-5-5-2-2-2-2-2-2-2-|
     * *   * *     * *   * *     * *   * *     * * 
 
Riff 1  (Pra sempre fingir...)
E|------------------------------------------------------|
B|------------------------------------------------------|
G|-----------11-11-11-11-11-11-11-----------------------|
D|-5-5-5-5-5--x--x--x--x--x--x--x-2-2-2-2-2-5-0---4-0---|
A|-5-5-5-5-5--9--9--9--9--9--9--9-2-2-2-2-2-----2-----2-|
D|-5-5-5-5-5----------------------2-2-2-2-2-------------|
                                             
E|--------------------------------------------------------|
B|--------------------------------------------------------|
G|-----------11-11-11-11-11-11-11-2-2-2-2-2-2-2-2-2-2-2-2-|
D|-5-5-5-5-5--x--x--x--x--x--x--x-2-2-2-2-2-2-2-2-2-2-2-2-|
A|-5-5-5-5-5--9--9--9--9--9--9--9-0-0-0-0-0-0-0-0-0-0-0-0-|
D|-5-5-5-5-5----------------------------------------------|

PONTE 1
E|-------------------------|
B|-------------------------|
G|-4-7--7-9--4-7--7-7--7-9-|
D|-x-x--x-x--x-x--x-x--x-x-|
A|-2/5--5/7--2/5--5-5--5/7-|
D|-------------------------|

Riff 2 (Pra sempre tudo...) 
E|-------------------------------------------------|
B|-------------------------------------------------|
G|-7-7-7-7-7-7-7-7-7-7-7-7-------------------------|
D|-x-x-x-x-x-x-x-x-x-x-x-x-5-5-5-5-5-5-5-5-5-5-5-5-|
A|-5-5-5-5-5-5-5-5-5-5-5-5-5-5-5-5-5-5-5-5-5-5-5-5-|
D|-------------------------5-5-5-5-5-5-5-5-5-5-5-5-|

E|---------------------------------------------|
B|---------------------------------------------|
G|---------------------------------------------|
D|-7-7-x-7-7-7-7-7-7-7-7-7-7-x-7-7-7-7-7-7-7-7-|
A|-7-7-x-7-7-7-7-7-7-7-7-7-7-x-7-7-7-7-7-7-7-7-|
D|-7-7-x-7-7-7-7-7-7-7-7-7-7-x-7-7-7-7-7-7-7-7-|

Riff 3 
E|------------------------------------------------------|---------------------|
B|------------------------------------------------------|                     |
G|-9-11-9--9v-------------------------------------------|                     |
D|----------------4-4---7-7-7---5-5-5-5-5-5-5-5-5-5-5-5-|                     |
A|--------------0-4-4-0-7-7-7-0-5-5-5-5-5-5-5-5-5-5-5-5-|                     |
D|--------------0-4-4-0-7-7-7-0-5-5-5-5-5-5-5-5-5-5-5-5-|                     |
                *     *       *                                               |---2X
E|--------------------------------------------------------|                   |
B|-------------------10-----------------------------------|                   |
G|-6-7-6---------7------------6-7---------6-7-------------|                   |
D|-------9-7-7-4---7----7-4-------7-7-7-4-----7-7-7-7-7-7-|                   |
A|--------------------------------------------------------|                   |
D|--------------------------------------------------------|-------------------|

REFRÃO
E|---------------------------------------------------------------|---1X----|
B|---------------------------------------------------------------|---------|
G|---------------------------------5-5-5-5-5-5-5-5---------------|---------|
D|-0-0-0-0-0-0-0-0-7-7-7-7-7-7-7-7-5-5-5-5-5-5-5-5-5-5-5-5-5-5-5-|---------|
A|-0-0-0-0-0-0-0-0-7-7-7-7-7-7-7-7-3-3-3-3-3-3-3-3-5-5-5-5-5-5-5-|-5-5-5-5-|
D|-0-0-0-0-0-0-0-0-7-7-7-7-7-7-7-7-----------------5-5-5-5-5-5-5-|---------|

 
PONTE 2
E|---------------------------|
B|----------7----------------|
G|------------7--------------|
D|-4--4-4-------7-----4--4-4-|
A|-2--2-2-------------2--2-2-|
D|-4------------------4------|
      * *                * * 
INTERLUDE
E|-----------4X------------|--------------3x------------------|---------------|
B|-------------------------|-5-7------------------------------|-------7-7-7-7-|
G|-------------------------|-----7-4------4-----4-----4-----4-|-7-7-7-7-7-7-7-|
D|-4-4-4-4-4-4-4-4-4-4-4-4-|--------------x-----x-----x-----x-|-7-7-7---------|
A|-2-2-2-2-2-2-2-2-2-2-2-2-|----------2-2-2-2-2-2-2-2-2-2-2-2-|---------------|
D|-------------------------|----------------------------------|-----2x--------|
     * *   * *   * *   * *            * *   * *   * *   * * 
FINAL
E|----------2x-------------|---------------------------------|
B|-------------------------|---------------------------------|
G|-------------------------|-------4-4-7-7-7-7-7-7-7-7-------|
D|-------5-5-5-5-5-5-5-5-5-|-7-7-7-x-x-x-x-x-x-x-x-x-x-7-7-7-|
A|-4-4-4-5-5-5-5-5-5-5-5-5-|-x-x-x-2-2-5-5-5-5-5-5-5-5-x-x-x-|
D|-4-4-4-5-5-5-5-5-5-5-5-5-|-7-7-7---------------------7-7-7-|
   * * *
                         |-FIM-|
E|-----------------------|-----|
B|-----------------------|-----|
G|-----------------------|-----|
D|-5-5-5-5-5-5-5-5-------|-4~~-|
A|-5-5-5-5-5-5-5-5-4-4-4-|-2~~-|
D|-5-5-5-5-5-5-5-5-4-4-4-|-----|
                   * * *

(GUITARRISTA: HÓSPEDE)

Intro
E|-----------------4x------------------------------|
B|-------------------------------------------------|
G|-------------------------7-7-7-7-7-7-7-7-7-7-7-7-|
D|-9-9-9-9-9-7-7-7-7-7-7-7-5-5-5-5-5-5-5-5-5-5-5-5-|
A|-9-9-9-9-9-7-7-7-7-7-7-7-5-5-5-5-5-5-5-5-5-5-5-5-|
D|-9-9-9-9-9-7-7-7-7-7-7-7-5-5-5-5-5-5-5-5-5-5-5-5-|

VERSO
E|-----------------------------------------------2-3-2----|
B|-----------------------------------------------------3--|
G|--------------------------------------------------------|
D|-4-4-4-4-4-4-7-7-7-7-7-7--------------------------------|
A|-2-2-2-2-2-2-5-5-5-5-5-5-5-5-5-5-5-5-2-2-2-2-2----------|
D|-------------------------5-5-5-5-5-5-2-2-2-2-2----------|
     * * * *     * * * *     * * * *     * * * * 
E|-------------------------------------------------------|
B|-------------------------------------------------------|
G|-------------------------------------------------------|
D|-4-4-4-4-4-4-7-7-7-7-7-7-----------------------4-5-4---|
A|-2-2-2-2-2-2-5-5-5-5-5-5-5-5-5-5-5-5-2-2-2-2-2-------5-|
D|-------------------------5-5-5-5-5-5-2-2-2-2-2---------|
     * * * *     * * * *     * * * *     * * * * 
E|---------------------------------------------------------------|
B|---------------------------------------------------------------|
G|---------------------------7-7-7-7-7-7-7-7-7-7-7-7-14-14-14-14-|
D|-4-4-4-4-4-4-7-7-7-7-7-7-7-x-x-x-x-x-x-x-x-x-x-x-x--x--x--x--x-|
A|-2-2-2-2-2-2-5-5-5-5-5-5-5-5-5-5-5-5-5-5-5-5-5-5-5-12-12-12-12-|
D|---------------------------------------------------------------|
   * *   * *     * *   * * 
Riff 1 (Pra sempre fingir...)
E|------------------------------------10------9----|
B|--------------------------------------10-----10--|
G|------------------------------7----------7-----7-|
D|-5-5-5-5-5-5-5-5-5-5-5-5--7-9---9----------------|
A|-5-5-5-5-5-5-5-5-5-5-5-5-------------------------|
D|-5-5-5-5-5-5-5-5-5-5-5-5-------------------------|

E|-------------------------------------------------|
B|-------------------------------------------------|
G|-------------------------------------------------|
D|-5-5-5-5-5-5-5-5-5-5-5-5-7-7-7-7-7-7-7-7-7-7-7-7-|
A|-5-5-5-5-5-5-5-5-5-5-5-5-7-7-7-7-7-7-7-7-7-7-7-7-|
D|-5-5-5-5-5-5-5-5-5-5-5-5-7-7-7-7-7-7-7-7-7-7-7-7-|

PONTE 1
E|----------------------------|
B|----------------------------|
G|-4-7--7-14--14-9--9-9--9-11-|
D|-x-x--x--x---x-x--x-x--x--x-|
A|-2/5--5/12--12/7--7-7--7/-9-|
D|----------------------------|

Riff 2 (Pra sempre tudo...)    
E|-------------------------------------------------------------------------|
B|-------------------------------------------------------------------------|
G|-14-14-14-14-14-14-14-14-14-14-14-14-14-14-14-14-14-12-12-12-12-12-12-12-|
D|--x--x--x--x--x--x--x--x--x--x--x--x--x--x--x--x--x--x--x--x--x--x--x--x-|
A|-12-12-12-12-12-12-12-12-12-12-12-12-12-12-12-12-12-10-10-10-10-10-10-10-|
D|-------------------------------------------------------------------------|

E|-----------------------------------------------------|
B|-----------------------------------------------------|
G|-7-7-7-7-7-6-6-6-6-6-6-6-9-11-11-11-13-9-9-9-9-9-9-9-|
D|-x-x-x-x-x-x-x-x-x-x-x-x-x--x--x--x--x-x-x-x-x-x-x-x-|
A|-5-5-5-5-5-4-4-4-4-4-4-4-7--9--9--9-10-7-7-7-7-7-7-7-|
D|-----------------------------------------------------|
RIFF 3
E|---------------------------------------------------|
B|---------------------------------------------------|
G|-6-7-6--6v-----------------------------------------|
D|-------------4-4---7-7-7---5-5-5-5-5-5-5-5-5-5-5-5-|
A|-----------0-4-4-0-7-7-7-0-5-5-5-5-5-5-5-5-5-5-5-5-|
D|-----------0-4-4-0-7-7-7-0-5-5-5-5-5-5-5-5-5-5-5-5-|
             *     *       * 
E|--------------------------------------------------|
B|--------------------------------------------------|
G|--------------------------------------------------|
D|-4-4-4-4----4-4---7-7-7---5-5-5-5-5-5-5-5-5-5-5-5-|
A|-2-2-2-2--0-4-4-0-7-7-7-0-5-5-5-5-5-5-5-5-5-5-5-5-|
D|----------0-4-4-0-7-7-7-0-5-5-5-5-5-5-5-5-5-5-5-5-|
            *     *       * 
E|---------------------------------------------------|
B|---------------------------------------------------|
G|-6-7-6--6v-----------------------------------------|
D|-------------4-4---7-7-7---5-5-5-5-5-5-5-5-5-5-5-5-|
A|-----------0-4-4-0-7-7-7-0-5-5-5-5-5-5-5-5-5-5-5-5-|
D|-----------0-4-4-0-7-7-7-0-5-5-5-5-5-5-5-5-5-5-5-5-|
             *     *       *
E|--------------------------------------------------|
B|--------------------------------------------------|
G|-6-7-4--------------------------------------------|
D|-------4----4-4---7-7-7---5-5-5-5-5-5-5-5-5-5-5-5-|
A|----------0-4-4-0-7-7-7-0-5-5-5-5-5-5-5-5-5-5-5-5-|
D|----------0-4-4-0-7-7-7-0-5-5-5-5-5-5-5-5-5-5-5-5-|
            *     *       * 
REFRÃO
E|-----------------------------------------------------------------|
B|-----------------------------------------------------------------|
G|-----------------------------------------------------------------|
D|-0-0-0-0-0-0-0-0-0-0-0-0-0-0-0-0-7-7-7-7-7-7-7-7-7-7-7-7-7-7-7-7-|
A|-0-0-0-0-0-0-0-0-0-0-0-0-0-0-0-0-7-7-7-7-7-7-7-7-7-7-7-7-7-7-7-7-|
D|-0-0-0-0-0-0-0-0-0-0-0-0-0-0-0-0-7-7-7-7-7-7-7-7-7-7-7-7-7-7-7-7-|

E|-------------------------------------------------------------------------|
B|-------------------------------------------------------------------------|
G|-11-11-11-11-11-11-11-11-9-9-9-9-9-9-9-9-4-4-4-4-4-4-4-4-14-14-14-14-x-x-|
D|--x--x--x--x--x--x--x--x-x-x-x-x-x-x-x-x-x-x-x-x-x-x-x-x--x--x--x--x-x-x-|
A|--9--9--9--9--9--9--9--9-7-7-7-7-7-7-7-7-2-2-2-2-2-2-2-2-12-12-12-12-x-x-|
D|-------------------------------------------------------------------------|

E|-----------------------------------------------------------------|
B|-----------------------------------------------------------------|
G|-----------------------------------------------------------------|
D|-0-0-0-0-0-0-0-0-0-0-0-0-0-0-0-0-6-7-6-7-6-7-6-7-6-7-6-7-6-7-6-7-|
A|-0-0-0-0-0-0-0-0-0-0-0-0-0-0-0-0---------------------------------|
D|-0-0-0-0-0-0-0-0-0-0-0-0-0-0-0-0---------------------------------|

E|----------------------------------------------------------------|
B|----------------------------------------------------------------|
G|-11-11-11-11-11-9-9-9-9-9-9-9-4-4-4-4-4-14-14-14-14-14-14-14-14-|
D|--x--x--x--x--x-x-x-x-x-x-x-x-x-x-x-x-x--x--x--x--x--x--x--x--x-|
A|--9--9--9--9--9-7-7-7-7-7-7-7-2-2-2-2-2-12-12-12-12-12-12-12-12-|
D|----------------------------------------------------------------|

PONTE 2
E|-----------------------|
B|-----------------------|
G|-----------------------|
D|-4--4-4-----4--4-4-----|
A|-2--2-2-----2--2-2-----|
D|-4----------4----------|
      * *        * * 
PONTE 3
E|-----------------------------|
B|-----------------------------|
G|-11---11--9---9--7--4-----2--|
D|--9----9--7---7--5--2--4--0--|
A|--9----9--7---7--5--2--4--0--|
D|-----------------------4-----|
INTERLUDE PARTE 1
E|-----------------------------------------------------------------|
B|-----------------------------------------------------------------|
G|-6-7-6-4-4-4-4-4-4-4-4-4-4-4-4-4-6h7h6-4-2-2-2-2-2-2-2-2-2-2-2-2-|
D|---------4-4-4-4-4-4-4-4-4-4-4-4---------4-4-4-4-4-4-4-4-4-4-4-4-|
A|-----------------------------------------------------------------|
D|-----------------------------------------------------------------|
           * *   * *   * *   * *           * *   * *   * *   * *
E|-----------------------------------|------------------------|
B|-----------------------------------|--7-7-7-10-10-10-10-10--|
G|-4h6h4-2-0-0-0-0-0-0-0-0-0-0-0-0-0-|--7-7-7-11-11-11-11-11--|
D|-----------4-4-4-4-4-4-4-4-4-4-4-4-|------------------------|
A|-----------------------------------|---------2x-------------|
D|-----------------------------------|------------------------|
             * *   * *   * *   * * 
FINAL
E|----------3x-------------|-----------------------------------------------|
B|-------------------------|-----------------------------------------------|
G|-------------------------|-------4-4/11-11-11-11-11-11-11-11-9-9-9-6-~---|
D|-------5-5-5-5-5-5-5-5-5-|-------x-x--x--x--x--x--x--x--x--x-x-x-x-x-----|
A|-4-4-4-5-5-5-5-5-5-5-5-5-|-4-4-4-2-2/-9--9--9--9--9--9--9--9-7-7-7-4-~---|
D|-4-4-4-5-5-5-5-5-5-5-5-5-|-4-4-4-----------------------------------------|
   * * *                     * * *
Composição de Dead Fish
Colaboração e revisão:
  • Rennan Andrello
12.506 exibições
    • ½ Tom
    • A
    • Bb
    • B
    • C
    • Db
    • D
    • Eb
    • E
    • F
    • F#
    • G
    • Ab
  • Adicionar à lista

    0 comentários

    Mostrar mais comentários

    Conseguiu tocar?

    0 Tocaram 0 Ainda não

    Grave um vídeo tocando Tudo e mande pra gente!

    00:00 / 00:00
    outros vídeos desta música
    repetir qualidade Automático
    Outros vídeos desta música
    00:00 / 00:00
    Automático

    Cifra Club Pro

    Aproveite o Cifra Club com benefícios exclusivos e sem anúncios
    Cifra Club Pro
    Aproveite o Cifra Club com benefícios exclusivos e sem anúncios
    OK