Cifra Club

Aprenda

Viver

Dead Fish

Cifra: Principal (violão e guitarra)
Tom: G#
#intro #A X2 *=play 12x
E-------------------------------4---4---4---------|
B-------9----9----9------*--------4---4---4-------|
G--1010---10---10---10--6---------------------*---|
D--1010-----------------6---6-6--------------8----|
A---8-8-----------------4---6-6--------------8----|
E---------------------------4-4--------------6----|

#intro #B *=play 6x b=bend-up
E--------------X3---------------------|----------------------------------|
B-----*--*----------------------------|-----*--*-------------------------|
G---10--8-----------------------------|---10--8--------------------------|
D----------10-10-10-10-10-10-10b-10---|----------10-10-10-10-10-10-10b---|
A-------------------------------------|----------------------------------|
E-------------------------------------|----------------------------------|

#verse #A&B *=play 12x #=play 6x
E-----------------------|
B----*---*--------------|
G--10---6----*---#---#--|
D--10---6---6---8---3---|
A---8---4---6---8---3---|
E-----------4---6---1---|

#verse2 #A
E---------------------------------------|
B---------------------------------------|
G--1010-10--13-1010--13-1010--13-1010---| #B play verse
D---------------------------------------|
A---8-8--8--11--8-8--11--8-8--11--8-8---|
E---------------------------------------|

#chorus #A X2 *=play 12x with some palm-muting #=play 6x
E-----------------------|
B------------*---#---#--|
G----*---*--3---6---8---|
D---3---6---3---6---8---|
A---3---6---1---4---6---|
E---1---4---------------|

#chorus #B *=play ???X with some palm-muting
E--------|
B----*---|
G--10----|
D--------|
A---8----|
E--------|

then play intro #A&B X1

#verse3 #A <<<=pick-slide %%=stop
E-------------------------%%---------------------|
B-------------------------%%---------------------|
G--10---------------------%%---------------------|
D-------------------------%%-----play-verse2-----|
A---8--------------<<<<<<<%%---------------------|
E------------------<<<<<<<%%---------------------|

#verse3 #B *=play 12x #=play 6x
E-------------------------%%---------------------|
B----*---*----------------%%---------------------|
G--10---6----*---#--------%%---------------------|
D--10---6---6---8---3-3-33%%-----play-verse------|
A---8---4---6---8---3-3-33%%---------------------|
E-----------4---6---1-1-11%%---------------------|

then play chorus #A&B

#bridge #A *=play 12x #=play 6x
E-----------------------|--------|
B------------*---#---#--|--end---|
G----*---*--3---6---8---|--------|
D---3---6---3---6---8---|---3----|
A---3---6---1---4---6---|---3----|
E---1---4---------------|---1----|

#bridge #B *=play 6x /=slide-up
E-------------------------|---------------------|
B----*---*----------------|----------11-11/13---|
G--10---8---5-5-55-5-5b---|---5--8--------------|
D-------------------------|---------------------|
A---8---6---3-3-33-3-3b---|---3-----------------|
E-------------------------|---------------------|


Valew aê..."Povo da Caera" é HardCore na veia!!!
Composição de Dead Fish
Colaboração e revisão:
  • Eliel Sopeletto
24.586 exibições
    • ½ Tom
    • A
    • Bb
    • B
    • C
    • Db
    • D
    • Eb
    • E
    • F
    • F#
    • G
    • Ab
  • Adicionar à lista

    0 comentários

    Mostrar mais comentários

    Conseguiu tocar?

    0 Tocaram 0 Ainda não

    Grave um vídeo tocando Viver e mande pra gente!

    00:00 / 00:00
    outros vídeos desta música
    repetir qualidade Automático
    Outros vídeos desta música
    00:00 / 00:00
    Automático

    Cifra Club Pro

    Aproveite o Cifra Club com benefícios exclusivos e sem anúncios
    Cifra Club Pro
    Aproveite o Cifra Club com benefícios exclusivos e sem anúncios
    OK