Cifra Club

Aprenda

Zero e Um

Dead Fish

Cifra: Principal (violão e guitarra)
tom: G
D#5              F5          F#5  G5
  Um bom computador e um carro veloz
       C5    Bb5    D5       D#5
  pra me manter distante de mim
               F5          F#5   G
  no alvo progresso entre zero e um
        F5       C5     Bb5
  esconder em você meus erros
G5          Bb5        F5
  pensar sim dizer um não
                  F#5                     G5
  quanto mais perto mais distante do que sou
            Bb5    F5         F#5                      
  vou mentir exagerar esta verdade já não tem tanto valor

  Refrão:
D#5    Bb5 F#5              G5
  Deletar, o que realmente sinto e posso acreditar
D#5    Bb5 F#5                  G5
  Programar, uma nova linguagem em que possa me adequar
Oitavas:base
C5,F5,G5,D#5,F5,F#5

G5                     D#5               F5   
  sem cores decadentes, sem nenhum arranhão
                 F#5
  um brilho nos dentes, e um vazio no ar
D#5               F5              F#5       G5
  E não a mais retorno com o que vai acontecer
          C5        Bb5       D
  já foi tudo planejado inexorável proteção
D#5                F5        F#5        G5
  e sei que você aceita como eu já aceitei
       F5   C5        Bb5
  mais um anúncio em nosso caos

   Refrão:
D#5    Bb5 F#5              G5
  Deletar, o que realmente sinto e posso acreditar
D#5    Bb5 F#5                  G5
  Programar, uma nova linguagem em que possa me adequar
C5,F5,G5,D

Interlúdio
E|-----------------------------------------------------------
B|-----------------------------------------------------------
G|-3---3---3---3--3---3---3---3------------------------------
D|55-555-555-555-33-333-333-333--3---3---3---3---444--4------
A|-------------------------------3---3---3---3---555--5------
E|------------------------------11-111-111-111---222--2------

OITAVAS
E|-----------------------------------------------------------
B|-----------------------------------------------------------
G|5-9-10--9--------------------------------------------------
D|*-*-*---*--5555--------------------------------------------
A|3-7-8---7--5555--------------------------------------------
E|-----------3333--------------------------------------------
 
Composição de Dead Fish
Colaboração e revisão:
  • Bruno Pereiea
75.181 exibições
    • ½ Tom
    • A
    • Bb
    • B
    • C
    • Db
    • D
    • Eb
    • E
    • F
    • F#
    • G
    • Ab
  • Adicionar à lista

    0 comentários

    Ver todos os comentários

    Conseguiu tocar?

    3 Tocaram 0 Ainda não

    Grave um vídeo tocando Zero e Um e nos envie!

    00:00 / 00:00
    Outros vídeos desta música
    Repetir Qualidade Automático
    Outros vídeos desta música
    00:00 / 00:00
    Automático

    Cifra Club Pro

    Aproveite o Cifra Club com benefícios exclusivos e sem anúncios
    Cifra Club Pro
    Aproveite o Cifra Club com benefícios exclusivos e sem anúncios
    OK